Flickerstick

Flickerstick
Smile (Guitar tab)

Smile by Flickerstick
tabbed by: Mat Mcmanus (raggerx51,munky0911@aol.com)

this is the band on Vh1's Bands on the Run, go to mp3.com
to get their songs

play these chords throughout the song
G: 3-2-0-0-3-3
Cadd9: 0-2-3-0-3-3

e|--------------------------------|------12-15-12---------------------
B|-12--------12----------12h15p12-|-12-15--------15-12-13-12----------
G|---14-12-14---14-12-14----------|-------------------------14-12---12
D|--------------------------------|-------------------------------14--
A|--------------------------------|-----------------------------------
E|--------------------------------|-----------------------------------

Rex also plays these Chords: (sorry i dont know the names)
E A D G B e
|-2-0-0-0-3-3-|
and
|-0-0-3-0-1-3-|

OptimusPrime

Toegevoegd door OptimusPrime op zo 01 dec, 2002 9:54 am

Auteur: ?
Componist: ?
Uitgever: ?
Taal: Engels

Reacties

CommonCrawl [Bot]

Volg Muzikum