Vengeance Rising

Vengeance Rising - You Will Be Hated guitar tab

Your rating:
Vengeance Rising
�You Will Be Hated�
From the Album:Released Upon the Earth
Written by Roger Martinez � 1992 Broken Songs
Tabbed by Nathan Adam
Neadam@mail.pittstate.edu

Tuning _ step down low to high:Eb,Ab,Db,Gb,Bb,Eb

Intro Riff after 3 second Low Em pedal
|--------------------------------------------------|
|--------------------------------------------------|
|--------------------------------------------------|
|-----------------------7----8----7----5-----(8)---|
|--2222222222222222-----7----8----7----5-----(8)---|
|--0000000000000000-----5----6----5----3-----(6)---| (x3) to

|------------------------------------------------------------|
|------------------------------------------------------------|
|------------------------------------------------------------|
|----------------------7----8----7-----5------8-7-5---8-7-5--|
|--2222222222222222----7----8----7-----5------8-7-5---8-7-5--|
|--0000000000000000----5----6----5-----3------6-5-3---6-5-3--| (generally straight back to
Intro Riff)

Bridge to Solo
|---------------------------------------|
|---------------------------------------|
|---------------------------------------|
|-------------------------------8--8----|
|-------------------------------8--8----|
|--0-5-4-3---5-4-3--0---5-4-3---6--6----| (x8)

Riff under solo and �You will be hated�
|------------------------------------|
|------------------------------------|
|------------------------------------|
|-------9----8--------8/7---7----10--|
|-------7----6--------6/5---5-----8--|
|-00--------------x------------------|

|-------------------------------------------|
|-------------------------------------------|
|-------------------------------------------|
|-------------------------------------------|
|-------9----8------8-/-7-----7-/-6-------5-|
|--0----7----6----0-6-/-5---0-5-/-4----0--3-|


Notes to players: The ( ) chords indicate a slightly bent, sustained chord. Listen to the
album and you�ll get the idea.  Sometimes the 6-5-3 triplet at the end of the second riff
goes on longer than twice. The two riffs directly above are very close if not exact, but
then grindcore often isn�t that exact when you play at lightening speed. Play it with a
groove, and stay tight or it�ll sound like garbage. Keep rocking for our Lord Jesus!!


Lyrics:
Nation will rise against nation, earthquakes, pestilence and disease.  These are just the
beginnings of sorrows.  Take heed that noon deceives you.
Multitudes of people begin to bind in a frame of mind, they come to hate you because you
stand for the truth of Christ.  Remember the full counsel, recall just what Christ said,
You�ll be hated for my names sake, endure to the end.
Do not be discouraged, when they talk their rope.  By prayer seek intersection, for they
hang themselves from the gallows pole.

And you will be hated: You�ll be hated, you will be hated.  And you will be hated: For
Christ�s sake hated. Unjustly hated.

Many come claiming to be Christ, furious when you call their hand.  They�re channels to
the hell gate, leeching serpents � in castles of sand.  And many as check not the words
get trapped into their web.  And like with the dark black widow, looks like love but it is
death.
Those who practice evil, yes, they hate the light.  And you are the light of the world and
they hate you alright.
For you know the will of God and seek His will to do.  Go now in force strong in His
might, remember two by two. (JOHN 3:20)

Just don�t forget, don�t be surprised, You will be hated By those who love lie. Don�t take
for granted the hearts towards our kind.  Messiah told us. We�d be despised.

But we live, they die�
Get this song at:
bol.com
amazon.com

Copyrights:

Author: ?

Composer: ?

Publisher: Intense Records (10)

Details:

Released in: 1992

Language: English

Share your thoughts

This form is protected by reCAPTCHA and the Google Privacy Policy and Terms of Service apply.

0 Comments found