Vengeance Rising

Vengeance Rising - Released Upon The Earth guitar tab

Your rating:
Vengeance Rising
�Released Upon the Earth�
From the Album:Released Upon the Earth
Written By Roger Martinez � 1992 Broken Songs
Tabbed by Nathan Adam
Neadam@mail.pittstate.edu

Standard Tuning

Main Triplet Riff
|--------------------------------------------------|
|--------------------------------------------------|
|--------------------------------------------------|
|--------------------------------------------------|
|--2-2------222---222-------2-2-----222----4---5---|
|--0-0------000---000-------0-0-----000----2---3---|(rep 3X) to

|-----------------------------------------------------|
|-----------------------------------------------------|
|-----------------------------------------------------|
|-----------------------------------------------------|
|--2-2------222---222-------2-2--------------3--2--1--|
|--0-0------000---000-------0-0----3--2--1------------|

Gang Vocal (�OCCUPY�) riff
|------------------------------------------|
|------------------------------------------|
|------------------------------------------|
|--9-\-8-----8-\-7-----7-\-6-----------9---|
|--7-\-6-----6-\-5-----5-\-4-----------7---|
|--------------------------------0-0-0-----|  (rep 3X) to

|-----------------------------------------------|
|-----------------------------------------------|
|-----------------------------------------------|
|--9-\-8-----8-\-7-----7-\-6--------3----3----3-|
|--7-\-6-----6-\-5-----5-\-4--------3----3----3-|
|-------------------------------0---1----1----1-|

Notes to players: The \ marks indicate  a slide from the lower chord to higher, or vice versa.
While Vengeance songs are made up of very few riffs, to play them as they were originally
played takes a practiced picking hand method.  Listen to the album to get the feel of the
triplets in the first riff.
I didn�t include the solos, but you can just play any scale in an Em pentatonic to really jam
over this. That�s what they did anyway.

Lyrics
Artistic Expressions of revealed reality. (the shirt designs) Truly a useful tool, use them
such and see
Explain the dark ones, so full of lies.  They are but shadows and soon to die.

They don�t realize time�s on our side. Evil would have it, we�d succumb to demise.  �As the
Father sent me, I send you�
OCCUPY!!!!!

Released upon the Earth (2x) OCCUPY, We�ll Occupy.  Released Upon the Earth (2x)
Get this song at:
bol.com
amazon.com

Copyrights:

Author: ?

Composer: ?

Publisher: KMG Records

Details:

Released in: 1992

Language: English

Share your thoughts

This form is protected by reCAPTCHA and the Google Privacy Policy and Terms of Service apply.

0 Comments found