Vengeance Rising

Vengeance Rising - Human Dark Potential guitar tab

Your rating:
Vengeance  Rising  "Human Dark Potential"
from the Album "Released Upon the Earth"
Written by Roger Martinez
1992 Broken Songs (ASCAP)
Tuning � step down. Eb, Ab, Db, Gb, Bb, Eb
Tabbed by Nathan Adam (child of The Rising)
neadam@mail.pittstate.edu
"If anyone is interested in any other  Christian heavy music tab, let me
know. Otherwise I will just send it as I get time to write it down"

Intro
-----------------------------------------------|
-----------------------------------------------|
-----------------------------------------------|
-----------------------------------------------|
--2-2----------3-2-------2-2---------3-2-------|
--0-0-----3-2------3-2---0-0----3-2------3-2---|



-----------------------------------------------|
-----------------------------------------------|
-----------------------------------------------|
--------------------------------------55-22-4--|
--2-2----------3-2-------2-2----------33-00-2--|
--0-0-----3-2------3-2---0-0---3-2-------------|


Main Riff
-----------------------------------------------------------------|
-----------------------------------------------------------------|
--------------------------------------------------------------3--|
--------------------------------------------------------------3--|
------------------3-2-0-0---------------------------3-2-0-0---1--|
-0000---3-2-0-0-----------3-2-0-0--0000---3-2-0-0----------------|

High Speed/Thrash Riff
-----------------------------------------------|
-----------------------------------------------|
-----------------------------------------------|
-222222222222--3--3--222222222222--3-3---------|
-000000000000--1--1--000000000000--1-1---------|
-----------------------------------------------|

Bridge end
-----------------------------------------------|
-----------------------------------------------|
-----------------------------------------------|
-5---------------4-------3---------------------|
-5-------(5)-----4-------3---(5)---------------|
-3---------------2-------1---------------------|
the (5)'s are harmonic squeels
Verses and Choruses
Why?  What is it that makes them snap? Where was the line crossed at?  To see the face looking so docile as they walk to their sentence of death.
I see the human dark potential.  This one's captured.  How many are not?
Who removed all the locks? Who could have known it was a time-bomb not just a clock?
To hear the madness of what's taken place.  Stronger than fiction the facts slap the face.
There's Human Dark Potential - Revealing itself everyday.
One thing I know for sure is this, It matters just who you reach here in this city.
Everywhere I go the papers say the same, Someone's good neighbor has flipped rabid insane.
I see it, Human Dark Potential.
What crazy thoughts are going through people's minds?
It matters what you do for Christ- all around you potential lies.
Either light or darkness will fill the life around you.  Which is it?
It is the human dark potential. Look what can happen when it's replaced
by light. (the Apostle Paul)

Dalmer, Ramirez, and their kind, Darwin, and Marx, blind leading the blind.
I was in Milwaukee in 1989, How I wish I'd led Jeffery to Christ.
Realize, there's human dark potential.  The man worked making candy.  Only the lifted one free's the captive.  The best psychology without Him produces death.
Get this song at:
bol.com
amazon.com

Copyrights:

Author: ?

Composer: ?

Publisher: Intense Records (10)

Details:

Released in: 1992

Language: English

Share your thoughts

This form is protected by reCAPTCHA and the Google Privacy Policy and Terms of Service apply.

0 Comments found