Vengeance Rising

Vengeance Rising - Herods Violent Death guitar tab

Your rating:
Vengeance Rising
�Herod�s violent death�
From the Album: Once Dead
Written by Roger Martinez � 1990 Broken Songs
Tabbed by Nathan Adam
Neadam@mail.pittstate.edu

Tuning _ step low to high: Eb, Ab, Db, Gb, Bb, Eb

Intro main riff
|----------------------------------------------------------------------|
|----------------------------------------------------------------------|
|----------------------------------------------------------------------|
|------------4---5-------------4---5---4--------------4---5----------5-|
|--22222222--4-/-5--2222222----4-/-5-\-4--22222222---4-/-5--2222222--5-|
|--00000000--2-/-3--0000000----2-/-3-\-2--00000000---2-/-3--0000000--3-|

�Herod�s Violent Death� Riff
|----------------------------------------------------------------------|
|----------------------------------------------------------------------|
|---------------------------------------------4---3--------------------|
|---------------------------------------------4---3------7---5---4-----|
|--22222222----4-/-5--2222222----4-/-5-\-4----2---1------7---5---4-----|
|--00000000----2-/-3--0000000----2-/-3-\-2---------------5---3---2-----|

Note: These aren�t always this consistent. These two riffs get chopped up a bit and mixed with each Other. This is the way
they appear most often though. Once you�ve played these through a few times, you Should have the feel of where they mix.

Bridge Riff
|------------------------------------------------------------------------------|
|------------------------------------------------------------------------------|
|------------------------------------------------------------------------------|
|--333333333333-222222222222---------------------------------------------------|
|--111111111111-000000000000-333333333---22222222--4-/-5--222222----4-/-5-\-4--|
|----------------------------111111111---00000000--2-/-3--000000----2-/-3-\-2--|

Players Notes: The strings of #�s are just thrash pedaling with pretty heavy palm muting, and all /
Marks indicate a slide from chord to chord, instead of individual picking on those chords. These riffs are
Also mixed up a bit as I�ve indicated above, but once you get these down, the changes in the song should
Be obvious. Play it Hardcore and heavy folks

Lyrics
This Herod (The Great) he was troubled, when he first learned of Christ, like so many of today, who neglect salvation life
and do not giveth Lord Christ Jesus, the glory due his name.  They try by their own righteousness, to enter Heavens gate.
Herods Violent Death (x2)

Another (Antipas) killed John the Baptist, for some wicked chick, like those who kill the Word of God, that is, make no
place for it.  They claim that they�re just busy, that maybe one day they�ll get with it, but as the thief comes in the
night, guess what they�ll be hit with.
Herods Violent Death (x2)

Bridge
A lesson to be learned, as History will repeat itself.  The scripture, it does no lie.  Billions will follow them to
Judgement, because they will not receive Christ.  Why don�t you repent tonight?
Herods Violent Death (x2)

This death is just a type of the terror, that you will live in if you refuse to become a Saint of God, consecrated to Him.
Holiness is not the eradication of evil in the fallen nature of man, But consecration unto God, Come by Faith, you can.
Get this song at:
bol.com
amazon.com

Copyrights:

Author: ?

Composer: ?

Publisher: Intense Records (10)

Details:

Released in: 1990

Language: English

Share your thoughts

This form is protected by reCAPTCHA and the Google Privacy Policy and Terms of Service apply.

0 Comments found