Tracy Chapman

Tracy Chapman - Talkin´ Bout A Revolution guitar tab

Your rating:
Title: Talkin� Bout a Revolution
Artist: Tracy Chapman
Album: Elektra

Instrument: 6 String Guitar

Tabbed by: Chris ---www.kata.xdn.de---


Play this the hole time:


     G       C       Em      D

E|---3---|---0---|---0---|---2---||
B|---3---|---1---|---0---|---3---||
G|---0---|---0---|---0---|---2---||
D|---0---|---2---|---2---|---0---||
A|---2---|---3---|---2---|---x---||
E|---3---|---0---|---0---|---x---||

After the D Chord you play sometimes this:

E|---3--2--0---||
B|-------------||
G|-------------||
D|-------------||
A|-------------||
E|-------------||

Thats it... very easy !
Get this song at:
bol.com
amazon.com

Copyrights:

Author: ?

Composer: ?

Publisher: Elektra Entertainment Group, WEA International Inc.

Details:

Released in: 1988

Language: English

Appearing on: Greatest Hits (2015) , Collection (2001)

Share your thoughts

This form is protected by reCAPTCHA and the Google Privacy Policy and Terms of Service apply.

0 Comments found