Townes Van Zandt

Townes Van Zandt - Ill Be Here In The Morning guitar tab

Your rating:
From: olaf.kaufmann1@uni-bielefeld.de
Date: Fri, 26 Mar 1999 21:53:12 +0100
Subject: v/van_zandt_townes/ill_be_here_in_the_morning.tab

Townes Van Zandt (with Barb Donovan):
I'll be here in the morning

(from "Document" [1997], also released on the CD "Rare Trax
Vol. 1", which was attached to the German edition
of "Rolling Stone" [January 1997])

This is a beautiful song, particularly in this version - a duet
with Barb Donovan from 1996 and one of his last recordings (the song
was originally released in 1970 on "Townes Van Zandt", his third album).

The picking is quite easy - I tabbed the first verse and there are just
minor variations in the following verses. To me it sounds reasonably
correct.
It is not clear, who plays guitar on the recording - Townes Van Zandt or

Barb Donovan.


I´┐Żll be here in the morning (by Townes Van Zandt)

Tuning: Standard
No Capo
4/4 time
Transcribed by Olaf Kaufmann (olaf.kaufmann1@uni-bielefeld.de)

Intro:
             C                 G
   ' . ' .   ' . ' . ' . ' .   ' . ' . ' . ' .
||---------|-0---------------|-----------------|
||-1---3---|-------1---------|-0---------0-----|
||---------|-----------0-----|-------0---------|
||---------|-----2-------2---|-----0-------0---|
||-3---3---|-3-------3-------|-----------------|
||---------|-----------------|-3-------3-------|

C
  ' . ' . ' . ' .   ' . ' . ' . ' .
|-----------------|-----------------||
|-1---------1-----|-1---------1-----||
|-------0---------|-------0---------||
|-----2-------2---|-----2-------2---||
|-3-------3-------|-3-------3-------||
|-----------------|-----------------||

Verse:
   C                                  Am                 C
   ' . ' . ' . ' .   ' . ' . ' . ' .   ' . ' . ' . ' .   ' . ' . ' . ' .

||-----------------|-----------------|-------0---------|-------0---------|

||-1---------1-----|-1---------1-----|-1---------1-----|-1---------1-----|

||-------0---------|-------0---------|-----------------|-----------------|

||-----2-------2---|-----2-------2---|-----2-------2---|-----2-------2---|

||-3-------3-------|-3-------3-------|-0-------0-------|-3-------3-------|

||-----------------|-----------------|-----------------|-----------------|


                                      G                 G7
  ' . ' . ' . ' .   ' . ' . ' . ' .   ' . ' . ' . ' .   ' . ' . ' . ' .
|-------0---------|-------0---------|-------3---------|-------1---------|

|-1---------1-----|-1---------1-----|-0---------0-----|-0---------0-----|

|-----------------|-----------------|-----------------|-----------------|

|-----2-------2---|-----2-------2---|-----0-------0---|-----0-------0---|

|-3-------3-------|-3-------3-------|-----------------|-----------------|

|-----------------|-----------------|-3-------3-------|-3-------3-------|



                    C
  ' . ' . ' . ' .   ' . ' . ' . ' .   ' . ' . ' . ' .
|-------1---------|-------0---------|-------0---------|
|-0---------0-----|-1---------1-----|-1---------1-----|
|-----------------|-----------------|-----------------|
|-----0-------0---|-----2-------2---|-----2-------2---|
|-----------------|-3-------3-------|-3-------3-------|
|-3-------3-------|-----------------|-----------------|



  Am                C                G (third fret)
  ' . ' . ' . ' .   ' . ' . ' . ' .   ' . ' . ' . ' .   ' . ' . ' . ' .
|-------0---------|-------0---------|-------3---------|-------3---------|

|-1---------1-----|-1---------1-----|-3---------3-----|-3---------3-----|

|-----------------|-----------------|---------------4-|-----------------|

|-----2-------2---|-----2-------0---|-----------------|-----------------|

|-0-------0-------|-3-------3-------|-----5-------5---|-----5-------5---|

|-----------------|-----------------|-3-------3-------|-3-------3-------|




  F                                   G (third fret)    F
  ' . ' . ' . ' .   ' . ' . ' . ' .   ' . ' . ' . ' .   ' . ' . ' . ' .
|-------1---------|-------1---------|-------3---------|-------1---------|

|-1---------1-----|-1---------1-----|-3---------3-----|-1---------1-----|

|---------------2-|-----------------|-----------------|-----------------|

|-----3-------3---|-----3-------3---|-----------------|-----3-----------|

|-----------------|-----------------|-----5-------5---|-------------3---|

|-1-------1-------|-1-------1-------|-3-------3-------|-1-------1-------|


                                      _________________________________
                                     |1.-3.
 Am                                   G                 G7

  ' . ' . ' . ' .   ' . ' . ' . ' .   ' . ' . ' . ' .   ' . ' . ' . ' .
|-----------------|-----------------|-------3---------|-1--------------||

|-------1-------1-|-------1---------|-0---------0-----|-------0--------||

|---2-------2-----|---2-------2-----|---0-------------|----------------||

|-----2-------2---|-----2-------0---|-----0-------0---|-----0------0---||

|-0-------0-------|-0-------0-------|-----------------|----------------||

|-----------------|-----------------|-3-------3-------|-3------3-------||


 ___________________________________________
|4.
  G (third fret)                      F
  ' . ' . ' . ' .   ' . ' . ' . ' .   ' . ' . ' . ' .   ' . ' . ' . ' .
|-------3---------|-------3---------|-------1---------|-------1---------|

|-3---------3-----|-3---------3-----|-1---------1-----|-1---------1-----|

|---------------4-|-----------------|---------------2-|-----------------|

|-----------------|-----------------|-----3-------3---|-----3-------3---|

|-----5-------5---|-----5-------5---|-----------------|-----------------|

|-3-------3-------|-3-------3-------|-1-------1-------|-1-------1-------|




 G (third fret)    F                  Am (ritardando)
  ' . ' . ' . ' .   ' . ' . ' . ' .   ' . ' . ' . ' .   ' . ' . '
|-------3---------|-------1---------|-----------------|---------||
|-3---------3-----|-1---------1-----|-------1-------1-|-------1-||
|-----------------|-----------------|---2-------2-----|---2-----||
|-----------------|-----3-----------|-----2-------2---|-----2---||
|-----5-------5---|-------------3---|-0-------0-------|-0-------||
|-3-------3-------|-1-------1-------|-----------------|---------||
Get this song at:
bol.com
amazon.com

Copyrights:

Author: Townes Van Zandt

Composer: ?

Publisher: Monroe / Eggers

Details:

Released in: 1969

Language: English

Share your thoughts

This form is protected by reCAPTCHA and the Google Privacy Policy and Terms of Service apply.

0 Comments found