Tim McGraw

Tim McGraw - Its Your Love The Right Version guitar tab

Your rating:
It�s Your Love off Everywhere � Tim Mcgraw

His best song�.

The chorus is mainly just strummed, but for the chords at the end of each chorus,
over 'It's your love', follow the picking from the intro for those chords.



G           =   320033
D/F#     =   200232
C(add9)     =   x32033
D/C      =   x3x232
Em          =   022000
D        =   xx0232


G  D/F#  C(add9)  D/C  C(add9)
INTRO


G                    D/F#
Dancing in the dark, middle of the night,
Em                    C(add9)
Taking your heart and holding it tight.
G                D/F#
Emotional touch, touching my skin,
Em                                           C(add9)
And asking you to do, what you've been doing all over again.
           D/F#      G                        D/F#        Em
Oh, it's a beautiful thing, don't think I can keep it all in.
       C(add9)                               D
I just gotta let you know, what it is that'a won't let me go.


          G                            D/F#
It's your love, it just does something to me,
                    Em                      C(add9)
Sends a shock right through me, I can't get enough.
           G                           D/F#
And if you wonder, about the spell I'm under,
    C(add9) D/C  C(add9)
Oh, it's    your love.



G                  D/F#
Better than I was, more than I am,
    Em                      C(add9)
And all of this happened by taking your hand.
    G                      D/F#
And who I am now, is who I wanted to be,
    Em
And now that we're together,
                            C(add9)
I'm stronger than ever, I'm happy and free.
           D/F#      G                        D/F#        Em
Oh, it's a beautiful thing, don't think I can keep it all in.
           C(add9)                                    D
And if you ask me why I've changed, all I gotta do is say your sweet name.


          G                            D/F#
It's your love, it just does something to me,
                    Em                      C(add9)
Sends a shock right through me, I can't get enough.
           G                           D/F#
And if you wonder, about the spell I'm under,
    C(add9) D/C  C(add9)
Oh, it's    your love.


G  D/F#  Em  C(add9)
INSTRUMENTAL


           D/F#      G                        D/F#        Em
Oh, it's a beautiful thing, don't think I can keep it all in.
       C(add9)                               D
I just gotta let you know, what it is that'a won't let me go.


          G                            D/F#
It's your love, it just does something to me,
                    Em                      C(add9)
Sends a shock right through me, I can't get enough.
           G                           D
And if you wonder, about the spell I'm under,
    C(add9) D/C  C(add9)  D/C
Oh, it's    your love.
C(add9)  D/C  C(add9)  D/C
It's     your love.
C(add9)  D/C  C(add9)  G
It's     your love.



h   =   hammer-on
/   =   slide up
p   =   pulloff

INTRO

    G           D/F#         C(add9) D/A   C(add9)

E------------------------------3-------2-----3------|
B-----3-----3-----3-----3-----3-3-----3-3---3-3-----|
G----0-0---0-0---2-2---2-2---0---0---2---2-0---0----|
D---0---0-0---0-0---0-0---0-------------------------|
A---------------------------3-------3-----3-----3---|
E--3-----3-----2-----2------------------------------|



PICKING PATTERN IN VERSE


      G           D/F#         Em           C(add9)

                                                         repeat x1
E--:-------------------------------------------3-----------:
B--:-----3-----3-----3-----3------0-----0-----3-3-------3--:
G--:----0-0---0-0---2-2---2-2----0-0---0-0---0---0-0---0---:
D--:---0---0-0---0-0---0-0---0--2---2-2---2---------0h2----:
A--:----------------------------------------3-----3--------:
E--:--3-----3-----2-----2------0-----0---------------------:


   D/F# G      D/F# Em        C(add9)       D

E----0--3---------0-0------------3-----3----2-2-2-2---|
B---3---3-3----3-3--0-----0-----3-3---3-3---3-3-3-3---|
G-------0--0---2----0----0-0---0---0-0---0--2-2-2-2---|
D--0----0---0--0----2-2h4---4---------------0-0-0-0---|
A--0----2-----------2---------3-----3-----------------|
E--2----3-----------0---------------------------------|



GUITAR SOLO OVER INSTRUMENTAL


   G                 D/F#                        Em                 C(add9)

E--3-5-5/7-7-8-10-8-7-------------7----------------10p8p7-8-10-8-7-8----|
B--------------------10/12-10-10--7h8p7-7-8-10-7-8------------------8---|
G--4-5-5/7------------------------7-------------------------------------|
D--------------------------------------9--------------------------------|
A-----------------------------------------------------------------------|
E-----------------------------------------------------------------------|
Get this song at:
bol.com
amazon.com

Copyrights:

Author: ?

Composer: ?

Publisher: ?

Details:

Language: English

Share your thoughts

This form is protected by reCAPTCHA and the Google Privacy Policy and Terms of Service apply.

0 Comments found