The Smashing Pumpkins

The Smashing Pumpkins - Sinfony guitar tab

Your rating:
The Smashing Pumpkins
Sinfony
Off Earphoria (2002)
Written by Billy Corgan
Tabbed by Jimi Jackson


Billy and James use an E � bow. Every guitar plays
one measure and then the other guitar does this.
Clear?



Standard Tuning



Guitar 1: Billy
Guitar 2: James


Billy
|-------------------------|
|-------------------------|
|--9-----11-----14--------|
|--7-----9------12--------|
|--7-----9------12--------|
|-------------------------|


James
|-------------------------|
|-------------------------|
|--9-----11-----14--------|
|--7-----9------12--------|
|--7-----9------12--------|
|-------------------------|


Billy
|-------------------------|
|-------------------------|
|--9-----11-----14--------|
|--7-----9------12--------|
|--7-----9------12--------|
|-------------------------|


James
|--------------------------|
|--------------------------|
|--16-----14-----19--------|
|--14-----12-----17--------|
|--14-----12-----17--------|
|--------------------------|


Billy
|----------------------------|
|----------------------------|
|--16---14---9-----19--------|
|--14---12---7-----17--------|
|--14---12---7-----17--------|
|----------------------------|


James
|---------------------------|
|---------------------------|
|--19---17---16---14--------|
|--17---16---14---12--------|
|--17---15---14---12--------|
|---------------------------|



"I�m all by my self"
Get this song at:
bol.com
amazon.com

Copyrights:

Author: ?

Composer: Billy Corgan

Publisher: Virgin Records America, Inc., The Smashing Pumpkins

Details:

Released in: 2005

Language: English

Appearing on: Ultimate Rarities , Earphoria (2002)

Share your thoughts

This form is protected by reCAPTCHA and the Google Privacy Policy and Terms of Service apply.

0 Comments found