The Jam

The Jam - Thats Entertainment Ver 2 guitar tab

Your rating:
#
From: bfrrelly@unix2.tcd.ie (Jerry Cornelius)
Message-Id:
To: mcdonghj
Status: RO

   Thats Entertainment by the Jam.

I have no notion what these chords actually are,
I suffer the fact that I thought myself so I have
sod all idea what chords I'm playing.

   That aside these chords are correct, I have a good ear.


   For all of the verses the chords are

-----6--------3------
-----6--------3------
-----7--------3------
-----8--------5------
-----8--------5------
-----6--------3------

The 'Thats Entertainment' chorus is

---3------4-----
---4------4----
---5------5----
---5------6----
---3------6----
---3------4----


And thats it!!
 It is simple and sounds cool.
If anyone has the chords please post!

    Brian.
Get this song at:
bol.com
amazon.com

Copyrights:

Author: ?

Composer: ?

Publisher: ?

Details:

Language: English

Share your thoughts

This form is protected by reCAPTCHA and the Google Privacy Policy and Terms of Service apply.

0 Comments found