The Jam

The Jam - Batman Theme guitar chord

Your rating:
From: "rob_wilkinson" 
Subject: j/jam/batman_theme.crd
Date: Fri, 2 Aug 2002 22:57:04 +0100

BATMAN THEME

The Jam, cover of The Who's cover of the TV Theme
Poster and transcriber - Philip Wilkinson


E|------------------------------------------------|
B|------------------------------------------------|
G|------------------------------------------------|
D|-7--7--6--6--5--5--6--6--7--7--6--6--5--5--6--6-| x2
A|-7--7--6--6--5--5--6--6--7--7--6--6--5--5--6--6-|=20
E|-7--5--4--4--3--3--4--4--7--5--4--4--3--3--4--4-|

E|------------------------------------------------|
B|------------------------------------------------|
G|-7--7--6--6--5--5--6--6--7--7--6--6--5--5--6--6-|
D|-7--7--6--6--5--5--6--6--7--7--6--6--5--5--6--6-|
A|-7--5--4--4--3--3--4--4--7--5--4--4--3--3--4--4-|
E|------------------------------------------------|

E|------------------------------------------------|
B|------------------------------------------------|
G|------------------------------------------------|
D|-7--7--6--6--5--5--6--6--7--7--6--6--5--5--6--6-|
A|-7--7--6--6--5--5--6--6--7--7--6--6--5--5--6--6-|
E|-7--5--4--4--3--3--4--4--7--5--4--4--3--3--4--4-|

E|------------------------------------------------|
B|------------------------------------------------|
G|-9--9--8--8--7--7--8--8--7--7--6--6--5--5--6--6-|
D|-9--9--8--8--7--7--8--8--7--7--6--6--5--5--6--6-|
A|-7--7--6--6--5--5--6--6--5--5--4--4--3--3--4--4-|
E|------------------------------------------------|

E|------------------------------------------------|
B|------------------------------------------------|
G|------------------------------------------------|
D|-7--7--6--6--5--5--6--6--7--7--6--6--5--5--6--6-|
A|-7--7--6--6--6--5--6--6--7--7--6--6--5--5--6--6-|
E|-7--5--4--4--3--3--4--4--7--5--4--4--3--3--4--4-|

E|------------------------------|
B|------------------------------|
G|------------------------------|
D|-7--7--6--6--5--5-----6-----6-|
A|-7--7--6--6--5--5-----6-----6-|
E|-7--5--4--4--3--3-----4-----4-|
Get this song at:
bol.com
amazon.com

Copyrights:

Author: Neal Hefti

Composer: ?

Publisher: Universal Music Operations Ltd.

Details:

Released in: 1977

Language: English

Share your thoughts

This form is protected by reCAPTCHA and the Google Privacy Policy and Terms of Service apply.

0 Comments found