The Jam

The Jam - Batman guitar tab

Your rating:
Band: The Jam
Song: Batman Theme
Tabbed by: \JEB/,

Intro X4
------------------------------------------------------------------------------
------------------------------------------------------------------------------
------------------------------------------------------------------------------
------------------------------------------------------------------------------
-7---7---6---6---5---5---6---6------------------------------------------------
-5---5---4---4---3---3---4---4------------------------------------------------

Chorus X3
------------------------------------------------------------------------------
------------------------------------------------------------------------------
------------------------------------------------------------------------------
-----------------------------------------------------------------7-7-6-6-5-5--
-7-7-6-6-5-5-6-6-7-7-6-6-5-5-6-6-7-7-6-6-5-5-6-6-7-7-6-6-5-5-6---5-5-4-4-3-3--
-5-5-4-4-3-3-4-4-5-5-4-4-3-3-4-4-5-5-4-4-3-3-4-4-5-5-4-4-3-3-4-0--------------


------------------------------------------------------------------------------
------------------------------------------------------------------------------
------------------------------------------------------------------------------
-6-6-7-7-6-6-5-5-6-----------------------------------9-9-8-8-7-7-8-8-7-7-6-6--
-4-4-5-5-4-4-3-3-4-0-7-7-6-6-5-5-6-6-7-7-6-6-5-5-6---7-7-6-6-5-5-6-6-5-5-4-4--
---------------------5-5-4-4-3-3-4-4-5-5-4-4-3-3-4-0--------------------------


------------------------------------------------------------------------------
------------------------------------------------------------------------------
------------------------------------------------------------------------------
-5-5-4------------------------------------------------------------------------
-3-3-4-0-7-7-6-6-5-5-6-6-7-7-6-6-5-5-6-6--------------------------------------
---------5-5-4-4-3-3-4-4-5-5-4-4-3-3-4-4--------------------------------------

Chorus 4
------------------------------------------------------------------------------
------------------------------------------------------------------------------
------------------------------------------------------------------------------
----------------------------------------------------------------------7---7---
-7--7--6--6--5--5--6--6--7--7--6--6--5--5--6--6--7-7-6-6-5-5-6-6-7----7---7---
-5--5--4--4--3--3--4--4--5--5--4--4--3--3--4--4--5-5-4-4-3-3-4-4-5----5---5---
Get this song at:
bol.com
amazon.com

Copyrights:

Author: ?

Composer: ?

Publisher: ?

Details:

Language: English

Share your thoughts

This form is protected by reCAPTCHA and the Google Privacy Policy and Terms of Service apply.

0 Comments found