The Goo Goo Dolls

The Goo Goo Dolls - Here Is Gone guitar chord

Your rating:
Date: Sat, 30 Mar 2002 15:08:32 -0600
From: Jellylorum 
Subject: g/goo_goo_dolls/here_is_gone.crd

Goo Goo Dolls
"Here is Gone"
Gutterflower - April 9, 2002

Tabbed by Chris Wheeler 
Tab edited by Amanda 

========================================================

CAPO ON THE FIRST FRET/TUNE UP A HALF-STEP
Chords written relative to the capo


[Intro chords]
	h      indicates a hammer-on
	--->   indicates to keep strumming

     Am Amsus4 -------> Am       C Cadd9 --------> C
E|--0--0--------------0-0-- | --0--0--------------0-0--
B|--1-h3--------------1-1-- | --1-h3--------------1-1--
G|--2--2--------------2-2-- | --0--0--------------0-0--
D|--2--2--------------2-2-- | --2--2--------------2-2--
A|--0--0--------------0-0-- | --3--3--------------3-3--
E|--X--X--------------X-X-- | --X--X--------------X-X--

     G5 -------------------->    F -------------------->
E|--X---------------------- | --X----------------------
B|--3---------------------- | --1----------------------
G|--0---------------------- | --2----------------------
D|--0---------------------- | --3----------------------
A|--X---------------------- | --3----------------------
E|--3---------------------- | --X----------------------


[Pre-chorus chords]
[Dadd9 = XX0230]
    Dadd9
	I'm . . .
    Am
         I'm . . .
    C
         We got to . . .
    Dadd9
         I . . .
    Am             G5            F
         But . . .


[Chorus chords]
[C/B = X2X010]
	C           C/B
     And I . . .
	Am
     Talk . . .
	   G5       F
     I . . .
	C           C/B
     And I . . .
	    Am
     All . . .
	    G5      F
     Somehow here . . .


[Verse]

[Pre-chorus]


[Bridge chords]
    Am            F
       And . . .
       C          C/B
       Of . . .
    Am            F
       And . . .
           C        C/B  Am  G5  F
       And all . . .


[Chorus]

[Outro - play chorus four times]
[End on C chord]
Get this song at:
bol.com
amazon.com

Copyrights:

Author: ?

Composer: ?

Publisher: ?

Details:

Language: English

Appearing on: Greatest Hits Volume One: The Singles (2007)

Share your thoughts

This form is protected by reCAPTCHA and the Google Privacy Policy and Terms of Service apply.

0 Comments found