The Bravery

The Bravery - No Breaks bass tab

Your rating:
No Breaks


G ---------------------------------------------------------------------7-----
D -----------------------14----------9------12-------------7-----------------
A ----0/12--12-12-15-12-------10-10-----10---------5-5-7-5-----5-5-7-5-------x1
E ---------------------------------------------------------------------------

G -----------------------------------------------------------------7---------
D -------------------14----------9------12-------------7---------------------
A ------12-12-15-12-------10-10-----10---------5-5-7-5-----5-5-7-5-----------x6
E ---------------------------------------------------------------------------

G ---------------------------------------------------------------------------
D -------------------14----------9------12-----------------------------------
A ------12-12-15-12-------10-10-----10-------------2*/14*--------------------x1
E ---------------------------------------------------------------------------


G ---------------------------------------------------------------------------
D ---------------------------------------------------------------------------
A ------3*-5*/12**---3*-5*/12**---7*-8*/12**---7*-8*/12*-10*--3--------------x1
E ---------------------------------------------------------------------------


G ---------------------------------------------------------------------7-----
D -----------------------14----------9------12-------------7-----------------
A ----0/12--12-12-15-12-------10-10-----10---------5-5-7-5-----5-5-7-5-------x1
E ---------------------------------------------------------------------------

G -----------------------------------------------------------------7---------
D -------------------14----------9------12-------------7---------------------
A ------12-12-15-12-------10-10-----10---------5-5-7-5-----5-5-7-5-----------x4
E ---------------------------------------------------------------------------


G ---------------------------------------------------------------------------
D -------------------14----------9------12-----------------------------------
A ------12-12-15-12-------10-10-----10-------------2*/14*--------------------x1
E ---------------------------------------------------------------------------


G ---------------------------------------------------------------------------
D ---------------------------------------------------------------------------
A ------3*-5*/12**---3*-5*/12**---7*-8*/12**---7*-8*/12*-10*-7*-8*-----------x1
E ---------------------------------------------------------------------------

G --------------------|        G -----------------------|
D --------------------|        D -----------------------|
A ------3**-7*-8*-----|x3      A ------3**-7*-5*--3-----|ending x1
E --------------------|        E -----------------------|

*= play 8x
**= play 16x
/=slide
Get this song at:
bol.com
amazon.com

Copyrights:

Author: ?

Composer: ?

Publisher: ?

Details:

Language: English

Share your thoughts

This form is protected by reCAPTCHA and the Google Privacy Policy and Terms of Service apply.

0 Comments found