Tankcsapda

Tankcsapda - Szabadon guitar tab

Your rating:
--------------------
Tankcsapda
Szabadon

Ha Zajt Akartok
--------------------


TablEdited by Szerepi B�lint
Tuning : E A D G B E 	Time Signature: 4/4


 |       |       |       |        |       |       |       |
|--------------------------------|--------------------------------|
|--------------------------------|--------------------------------|
|--------------------------------|--------------------------------|
|--------------------------------|--------------------------------|
|--------------------------------|--------------------------------|
|-7----7--5-----5---7---10-10-10-|-7----7--5-----5---7---10-10-10-|

 |       |       |       |        |       |       |       |
|--------------------------------|--------------------------------|
|--------------------------------|--------------------------------|
|--------------------------------|--------------------------------|
|--------------------------------|--------------------------------|
|--------------------------------|--------------------------------|
|-7----7--5-----5---7---10-10-10-|-7----7--5-----5---7---10-10-10-|

 |       |       |       |        |       |       |       |
|--------------------------------|--------------------------------|
|--------------------------------|--------------------------------|
|--------------------------------|--------------------------------|
|11---11--9-----9--11---14-14-14-|11---11--9-----9--11---14-14-14-|
|-9----9--7-----7---9---12-12-12-|-9----9--7-----7---9---12-12-12-|
|-7----7--5-----5---7---10-10-10-|-7----7--5-----5---7---10-10-10-|

 |       |       |       |        |       |       |       |
|--------------------------------|--------------------------------|
|--------------------------------|--------------------------------|
|--------------------------------|--------------------------------|
|11---11--9-----9--11---14-14-14-|11---11--9-----9--11---14-14-14-|
|-9----9--7-----7---9---12-12-12-|-9----9--7-----7---9---12-12-12-|
|-7----7--5-----5---7---10-10-10-|-7----7--5-----5---7---10-10-10-|

 |       |       |       |        |       |       |       |
|--------------------------------|--------------------------------|
|--------------------------------|--------------------------------|
|--------------------------------|--------------------------------|
|11---11--9-----9--11---14-14-14-|11---11--9-----9--11---14-14-14-|
|-9----9--7-----7---9---12-12-12-|-9----9--7-----7---9---12-12-12-|
|-7----7--5-----5---7---10-10-10-|-7----7--5-----5---7---10-10-10-|

 |       |       |       |        |       |       |       |
|--------------------------------|--------------------------------|
|--------------------------------|--------------------------------|
|--------------------------------|--------------------------------|
|11---11--9-----9--11---14-14-14-|11---11--9-----9--11---14-14-14-|
|-9----9--7-----7---9---12-12-12-|-9----9--7-----7---9---12-12-12-|
|-7----7--5-----5---7---10-10-10-|-7----7--5-----5---7---10-10-10-|

 |       |       |       |        |       |       |       |
|--------------------------------|--------------------------------|
|--------------------------------|--------------------------------|
|--------------------------------|--------------------------------|
|------------------------10--10--|------------------------10--10--|
|-7-------5---------7----10--10--|-7-------5---------7----10--10--|
|-7-------5---------7----10--10--|-7-------5---------7----10--10--|

 |       |       |       |        |       |       |       |
|--------------------------------|--------------------------------|
|--------------------------------|--------------------------------|
|--------------------------------|--------------------------------|
|------------------------10--10--|------------------------10--10--|
|-7-------5---------7----10--10--|-7-------5---------7----10--10--|
|-7-------5---------7----10--10--|-7-------5---------7----10--10--|

 |       |       |       |        |       |       |       |
|--------------------------------|--------------------------------|
|--------------------------------|--------------------------------|
|--------------------------------|--------------------------------|
|11---11--9-----9--11---14-14-14-|11---11--9-----9--11---14-14-14-|
|-9----9--7-----7---9---12-12-12-|-9----9--7-----7---9---12-12-12-|
|-7----7--5-----5---7---10-10-10-|-7----7--5-----5---7---10-10-10-|

 |       |       |       |        |       |       |       |
|--------------------------------|--------------------------------|
|--------------------------------|--------------------------------|
|--------------------------------|--------------------------------|
|11---11--9-----9--11---14-14-14-|11---11--9-----9--11---14-14-14-|
|-9----9--7-----7---9---12-12-12-|-9----9--7-----7---9---12-12-12-|
|-7----7--5-----5---7---10-10-10-|-7----7--5-----5---7---10-10-10-|

 |       |       |       |        |       |       |       |
|--------------------------------|--------------------------------|
|--------------------------------|--------------------------------|
|--------------------------------|--------------------------------|
|-9----9--7-----7---9---12-12-12-|-9----9--7-----7---9---12-12-12-|
|-9----9--7-----7---9---12-12-12-|-9----9--7-----7---9---12-12-12-|
|-7----7--5-----5---7---10-10-10-|-7----7--5-----5---7---10-10-10-|

 |       |       |       |        |       |       |       |
|--------------------------------|--------------------------------|
|--------------------------------|--------------------------------|
|--------------------------------|--------------------------------|
|-9----9--7-----7---9---12-12-12-|-9----9--7-----7---9---12-12-12-|
|-9----9--7-----7---9---12-12-12-|-9----9--7-----7---9---12-12-12-|
|-7----7--5-----5---7---10-10-10-|-7----7--5-----5---7---10-10-10-|

 |       |       |       |        |       |       |       |
|--------------------------------|--------------------------------|
|--------------------------------|--------------------------------|
|--------------------------------|--------------------------------|
|------------------------10--10--|------------------------10--10--|
|-7-------5---------7----10--10--|-7-------5---------7----10--10--|
|-7-------5---------7----10--10--|-7-------5---------7----10--10--|

 |       |       |       |        |       |       |       |
|--------------------------------|--------------------------------|
|--------------------------------|--------------------------------|
|--------------------------------|--------------------------------|
|------------------------10--10--|------------------------10--10--|
|-7-------5---------7----10--10--|-7-------5---------7----10--10--|
|-7-------5---------7----10--10--|-7-------5---------7----10--10--|

 |       |       |       |        |       |       |       |
|--------------------------------|--------------------------------|
|--------------------------------|--------------------------------|
|--------------------------------|--------------------------------|
|11---11--9-----9--11---14-14-14-|11---11--9-----9--11---14-14-14-|
|-9----9--7-----7---9---12-12-12-|-9----9--7-----7---9---12-12-12-|
|-7----7--5-----5---7---10-10-10-|-7----7--5-----5---7---10-10-10-|

 |       |       |       |        |       |       |       |
|--------------------------------|--------------------------------|
|--------------------------------|--------------------------------|
|--------------------------------|--------------------------------|
|11---11--9-----9--11---14-14-14-|11---11--9-----9--11---5--------|
|-9----9--7-----7---9---12-12-12-|-9----9--7-----7---9---5--------|
|-7----7--5-----5---7---10-10-10-|-7----7--5-----5---7---3--------|

 |       |       |       |        |       |       |       |
|--------------------------------|--------------------------------|
|--------------------------------|--------------------------------|
|---0------0------0-----0--------|---0------0------0-----0--------|
|-----0------0------0-----0----0-|-----0------0------0-----0----0-|
|-2------0-----------------------|-2------0-----------------------|
|---------------3-----------3----|---------------3-----------3----|

 |       |       |       |        |       |       |       |
|--------------------------------|--------------------------------|
|--------------------------------|--------------------------------|
|---0------0------0-----0--------|---0------0------0-----0--------|
|-----0------0------0-----0----0-|-----0------0------0-----0----0-|
|-2------0-----------------------|-2------0-----------------------|
|---------------3-----------3----|---------------3-----------3----|

 |       |       |       |        |       |       |       |
|--------------------------------|--------------------------------|
|--------------------------------|--------------------------------|
|---0------0------0-----0--------|---0------0------0-----0--------|
|-----0------0------0-----0----0-|-----0------0------0-----0----0-|
|-2------0-----------------------|-2------0-----------------------|
|---------------3-----------3----|---------------3-----------3----|

 |       |       |       |        |       |       |       |
|--------------------------------|--------------------------------|
|--------------------------------|--------------------------------|
|---0------0------0-----0--------|--------------------------------|
|-----0------0------0-----0----0-|-7-7-7-7-7-7-7-7-5-5-5-5-5-5-5-5|
|-2------0-----------------------|-7-7-7-7-7-7-7-7-5-5-5-5-5-5-5-5|
|---------------3-----------3----|-5-5-5-5-5-5-5-5-3-3-3-3-3-3-3-3|

 |       |       |       |        |       |       |       |
|--------------------------------|0-0-0-0-0-0-0-0-0-0-0-0-0-0-0-0-|
|-3-3-3-3-3-3-3-3-3-3-3-3-3-3-3-3|--------------------------------|
|--------------------------------|--------------------------------|
|-9-9---7-7---5-----5-5-5-5-5-5--|-9-9---7-7---5-----5-5-5-5-5-5--|
|-9-9---7-7---5-----5-5-5-5-5-5--|-9-9---7-7---5-----5-5-5-5-5-5--|
|-7-7---5-5---3-----3-3-3-3-3-3--|-7-7---5-5---3-----3-3-3-3-3-3--|

 |       |       |       |        |       |       |       |
|-3-3-3-3-3-3-3-3-3-3-3-3-3-3-3-3|5-5-5-5-5-5-5-5-5-5-5-5-5-5-5-5-|
|--------------------------------|--------------------------------|
|--------------------------------|--------------------------------|
|-9-9---7-7---5-----5-5-5-5-5-5--|-9-9---7-7---5-----5-5-5-5-5-5--|
|-9-9---7-7---5-----5-5-5-5-5-5--|-9-9---7-7---5-----5-5-5-5-5-5--|
|-7-7---5-5---3-----3-3-3-3-3-3--|-7-7---5-5---3-----3-3-3-3-3-3--|

 |       |       |       |        |       |       |       |
|12121212121212121212121212121212|12121212121212121212121212121212|
|--------------------------------|--------------------------------|
|--------------------------------|--------------------------------|
|-9-9---7-7---5-----5-5-5-5-5-5--|-9-9---7-7---5-----5-5-5-5-5-5--|
|-9-9---7-7---5-----5-5-5-5-5-5--|-9-9---7-7---5-----5-5-5-5-5-5--|
|-7-7---5-5---3-----3-3-3-3-3-3--|-7-7---5-5---3-----3-3-3-3-3-3--|

 |       |       |       |        |       |       |       |
|12121212121212121212121212121212|12121212121212121215~-----------|
|--------------------------------|--------------------------------|
|--------------------------------|--------------------------------|
|-9-9---7-7---5-----5-5-5-5-5-5--|-9-9---7-7---5-----5-5-5-5-5-5--|
|-9-9---7-7---5-----5-5-5-5-5-5--|-9-9---7-7---5-----5-5-5-5-5-5--|
|-7-7---5-5---3-----3-3-3-3-3-3--|-7-7---5-5---3-----3-3-3-3-3-3--|

 |       |       |       |        |       |       |       |
|--------------------------------|--------------------------------|
|--------------------------------|--------------------------------|
|--------------------------------|--------------------------------|
|-9----9--7-----7---9---12-12-12-|-9----9--7-----7---9---12-12-12-|
|-9----9--7-----7---9---12-12-12-|-9----9--7-----7---9---12-12-12-|
|-7----7--5-----5---7---10-10-10-|-7----7--5-----5---7---10-10-10-|

 |       |       |       |        |       |       |       |
|--------------------------------|--------------------------------|
|--------------------------------|--------------------------------|
|--------------------------------|--------------------------------|
|-9----9--7-----7---9---12-12-12-|-9----9--7-----7---9---12-12-12-|
|-9----9--7-----7---9---12-12-12-|-9----9--7-----7---9---12-12-12-|
|-7----7--5-----5---7---10-10-10-|-7----7--5-----5---7---10-10-10-|

 |       |       |       |        |       |       |       |
|--------------------------------|--------------------------------|
|--------------------------------|--------------------------------|
|--------------------------------|--------------------------------|
|-9----9--7-----7---9---12-12-12-|-9----9--7-----7---9---12-12-12-|
|-9----9--7-----7---9---12-12-12-|-9----9--7-----7---9---12-12-12-|
|-7----7--5-----5---7---10-10-10-|-7----7--5-----5---7---10-10-10-|

 |       |       |       |        |       |       |       |
|--------------------------------|--------------------------------|
|--------------------------------|--------------------------------|
|--------------------------------|--------------------------------|
|-9----9--7-----7---9---12-12-12-|-9----9--7-----7---9---12-12-12-|
|-9----9--7-----7---9---12-12-12-|-9----9--7-----7---9---12-12-12-|
|-7----7--5-----5---7---10-10-10-|-7----7--5-----5---7---10-10-10-|

 |       |       |       |        |       |       |       |
|--------------------------------|--------------------------------|
|--------------------------------|--------------------------------|
|--------------------------------|--------------------------------|
|-9----9--7-----7---9---12-12-12-|-9----9--7-----7---9---12-12-12-|
|-9----9--7-----7---9---12-12-12-|-9----9--7-----7---9---12-12-12-|
|-7----7--5-----5---7---10-10-10-|-7----7--5-----5---7---10-10-10-|

 |       |       |       |        |       |       |       |
|--------------------------------|--------------------------------|
|--------------------------------|--------------------------------|
|--------------------------------|--------------------------------|
|-9----9--7-----7---9---12-12-12-|-9----9--7-----7---9---12-12-12-|
|-9----9--7-----7---9---12-12-12-|-9----9--7-----7---9---12-12-12-|
|-7----7--5-----5---7---10-10-10-|-7----7--5-----5---7---10-10-10-|
Get this song at:
bol.com
amazon.com

Copyrights:

Author: ?

Composer: ?

Publisher: Tank Music (2)

Details:

Released in: 1999

Language: Hungarian

Share your thoughts

This form is protected by reCAPTCHA and the Google Privacy Policy and Terms of Service apply.

0 Comments found