Sigur Ros

Sigur Ros - Nyja Lagid guitar tab

Your rating:
Artist: Sigur Ros
Album: Svefn-g-Englar Ep
Song: Nyja Lagid
Tabbed by: HopE

|---0--------------------0----------------0------0-----------------|
|---0--------------------0----------------0------0-----------------|
|---8------9--8--7-------9------9--8--6---6------4-----------------|
|---9----9---------------7----7-----------7------6--6h7---6--4-----|
|---9--9-----------------0--9-------------0------7-----------------|
|---7--------------------x----------------x------0-----------------|

After those little harmonics, this is played:

|----------------------------|
|----------------------------|
|----------------------------|
|----------------------------|
|----------------------------|
|---11------12----7----12----|

These are the chords for the progression:

| G#m | G | Bm | D | A | G | Em |

Here's the ending part:

     G#m     G   F#m   E    Bm  F#m  Bm   F#m   A
|-----------------------------------------------------|
|-----------------------------------------------------|
|-----------------------------------------------------|
|-----------------------------------------------------|
|-----------------------------------------------------|
|----17\16---15---13---12---10---9---10----9----5-----|
Get this song at:
bol.com
amazon.com

Copyrights:

Author: ?

Composer: ?

Publisher: Sigur Rós, Bad Taste Ltd.

Details:

Released in: 1999

Language: English

Share your thoughts

This form is protected by reCAPTCHA and the Google Privacy Policy and Terms of Service apply.

0 Comments found