Saves The Day

Saves The Day - Monkey bass tab

Your rating:
Saves The Day
Monkey
tebbed by Adam
www.ebenrocks.8m.com

Tune a half step down

Entrance into song
----------------------|
----------------------|
-7-9p7-9-10-----------|
----------------------|

Part 1 (there are some variations and low fifths that I didn't inclide)
-----------------------------------------------------------------------|
-----8--------------------8------------------------------3h5p3---------|
--10---10----10-9-9---9-8---8---8-7-7---33-3-55-6-6--5---------5-3-----|
----------10--------9---------6------------------------1-----------6---|

Part 2
---------------------------------------------------------0h1p0--|
---------------------3-5--------1-0--------0-1-2-3-----3--------|
--/6-/7-/8--3-5--3-5-----5-3-1------1---11---------3h5----------|
--------------------------------------3-------------------------|

Part 2 continued

----------------------------------------------------------------|
------3-5-------1-0---------------------------------3h5p3-------|
--5-5-----5-3-1-----1----1-3-3---3-5-5----5-6-6-5---------5-3---|
-----------------------3-------3-------5----------1-------------|

Part 3
------------------------------------------------------|
-----4>--5-------4>-----------------------------2>-1>-|
-1>--------5---------x-2-then--1>------------1>-------|
-------------6-3-------------------2>-3>--2>----------|

Repeat part 1, then play this tricky variation

------------------------------------------------------------------------|
-------10-10h11p10-8-----------10-10h11p110-8---------10-10h11p10-8-----|
-10-10---------------10----9-9----------------9---8-8---------------8---|
------------------------10----------------------9---------------------8-|

------------------------------------------------|
-----10-10h11p10-8-------------3h5p3------------|
-7-7---------------7-----3-5---------5-3--------|
---------------------7-------1------------------|

Repeat part 2 until end, extending and repeating ending on C
Get this song at:
bol.com
amazon.com

Copyrights:

Author: ?

Composer: ?

Publisher: SKG Music LLC

Details:

Released in: 2003

Language: English

Appearing on: In Reverie (2003)

Share your thoughts

This form is protected by reCAPTCHA and the Google Privacy Policy and Terms of Service apply.

0 Comments found