R.L. Burnside

R.L. Burnside - Goin Down South guitar tab

Your rating:
Date: Fri, 6 Jul 2001 02:41:06 -0400
From: Dumchusa@aol.com
Subject: b/burnside_r_l/goin_down_south.tab

Goin' Down South

written by R.L. Burnside
from R.L.Burnside album My Black Name Ringin'
tabbed by Adrian Dumchus (dumchusa@aol.com)

played in Open D (D A D F# A D from low to high)

This is the stripped down acoustic version from My Black Name Ringin'.
The song is pretty simple, just make sure to let the notes on the
middle D string ring (where the notes are in parenthesis), and to
slightly mute the bass string with the palm.

Verse:

D-|-----0-------0---|-----0-------0---|
A-|-B---0-------0---|-B---0-------0---|
F#|-^---0-------0---|-^---0-------0---| Repeat 1x
D-|-3--(3)--0--(0)--|-3--(3)--0--(0)--|
A-|-----------------|-----------------|
D-|-------0-------0-|-------0-------0-|

  Goin down south    Goin down south...

D-|-----0-------0---|-----------------|-----------------|
A-|-B---0---B---0---|-----------------|-----------------|
F#|-^---0---^---0---|-----------------|-----------------|
D-|-3--(3)--3--(3)--|-0------H--------|--------H--------|
A-|-----------------|--------^--3-----|-5~-----^--3-----|
D-|-------0-------0-|----0--0-3-----3-|----0--0-3-----3-|

   Chilly  wind don't blow...

D-|-----------------|---------------------|
A-|-----------------|---------------------|
F#|-----------------|---------------------|  return to verse
D-|--------H--------|--------H------------|
A-|-5~-----^--3-----|-5~-----^--3----5~---|
D-|----0--0-3-----3-|----0--0-3----3----0-|
Get this song at:
bol.com
amazon.com

Copyrights:

Author: R.L. Burnside, James Trombly, Martin "Tino" Gross

Composer: ?

Publisher: Matador Records (2)

Details:

Released in: 1994

Language: English

Appearing on: A Ass Pocket of Whiskey (1996) , Burnside's Darker Blues (2003)

Share your thoughts

This form is protected by reCAPTCHA and the Google Privacy Policy and Terms of Service apply.

0 Comments found