Rage Against the Machine

Rage Against the Machine - 03 - Take The Power Back bass tab

Your rating:
Artist: Rage Against The Machine
Song: Take The Power Back
Tabbed by LifeInSin
--> www.lifeinsin.tk

The "No more lies"-part is missing... maybe you can help me there.
And there is variation in the verse which I can't figure out.

Intro
G|-------------------|
D|-------------------|
A|-------------------|  (x4)
D|-0-0---------------|
   s s

G|--------------------------------------|
D|---------3p0X----3--------------------|
A|-----3h5X----3h5X---------------------|  (x4)
D|-0-0----------------0-0---------------|
   s s p   p   p   p  s s

Verse
G|-------------------|
D|---------3p0X----3-|
A|-----3h5X----3h5X--|  (x3)
D|-0-0---------------|
   s s p   p   p   p

G|----------------------|
D|---------3p0X---------|
A|-----3h5X----3h5p3p0--|
D|-0-0----------------3-|
   s s p   p   p   p  s

Chorus
G|--------------------|
D|--------------------|
A|---5----3-4-5-------|  (x3)
D|-0----0-------0-0---|
                s s

G|-----------|
D|-----------|
A|---5----3~-|
D|-0----0----|

Fill
G|-------------------|
D|---------3p0-----3-|
A|-----3h5-----3h5---|  (x3)
D|-0-0---------------|

G|----------------------|
D|---------3p0----------|
A|-----3h5-----3h5p3p0--|
D|-0-0----------------3-|

Solo
G|-------------------|
D|---------3p0X----3-|
A|-----3h5X----3h5X--|  (x3)
D|-0-0---------------|
   s s p   p   p   p

G|----------------------|
D|---------3p0X---------|
A|-----3h5X----3h5p3p0--|
D|-0-0----------------3-|
   s s p   p   p   p  s

Interlude
G|------------|
D|------------|
A|-5-4-3----3-|  (x4)
D|-------3-5--|

Bridge
G|-------------------|
D|-------------------|
A|-------------------|  (x4)
D|-0-0---------------|
   s s

Verse
G|-------------------|
D|---------3p0X----3-|
A|-----3h5X----3h5X--|  (x3)
D|-0-0---------------|
   s s p   p   p   p

G|----------------------|
D|---------3p0X---------|
A|-----3h5X----3h5p3p0--|
D|-0-0----------------3-|
   s s p   p   p   p  s

Chorus
G|--------------------|
D|--------------------|
A|---5----3-4-5-------|  (x3)
D|-0----0-------0-0---|
                s s

G|-----------|
D|-----------|
A|---5----3~-|
D|-0----0----|

Calm Part
G|--------5--|
D|---5-------|
A|-3----3----|
D|-----------|

Interlude 2
G|------------------------------------|
D|------------------------------------|
A|-5-4-3---5-4-3---5-4-3---3-33-333h4-|
D|------------------------------------|

Outro
G|---------|
D|---------|
A|-5~---5/-|
D|---------|
Get this song at:
bol.com
amazon.com

Copyrights:

Author: ?

Composer: ?

Publisher: ?

Details:

Language: English

Share your thoughts

This form is protected by reCAPTCHA and the Google Privacy Policy and Terms of Service apply.

0 Comments found