Ra

Ra - Do You Call My Name guitar tab

Your rating:
RA - DO YOU CALL MY NAME
TABBER: C0Z420
EMAIL:COZ200059@HOTMAIL.COM

Tuning CGCFAD

I tried my best to do this by ear, kinda tough, please
please, please comment and send corrections, i wanna know
the correct way to play this tricky song.  I guess RA
uses 7 strings, so maybe thats why I suck at this song.
Anyways, try it out and rate it.

/=Slide, Pm=Palm Mute, P=Pull

(FIRST PART)
D|------------------------------------------------|----------|
A|------------------------------------------------|----------|
F|------------------------------------------------|----------|
C|-5-4--8-----5-4--8-9-11-----5-4--8---5-4--0-1-2-|--5-4--8--|
G|-5-4--8-----5-4--8-9-11-----5-4--8---5-4--0-1-2-|--5-4--8--|
C|-5-4--8-----5-4--8-9-11-----5-4--8---5-4--0-1-2-|--5-4--8--|

^^^Repeat this four times, on the last one go like this:

D|------------------------|
A|------------------------|
F|------------------------|
C|--1--2-4-5--7--9--------|
G|--1--2-4-5--7--9--------|
C|--1--2-4-5--7--9--------|

The second part goes as follows:

Verse: Now this part I think sounds pretty good
D|-----------------------------------------------------------|
A|------10-10-9-9------------9-------------------------------|
F|-------X--X-X-X------------X--------7-7-6-6------------6---|
C|--2-2--7--7/6-6----2-2-2-2-6---2-2--X-X-X-X---2-2-2-2--X---|
G|--2-2--------------2-2-2-2-----2-2--5-5-4-4---2-2-2-2--4---|
C|--2-2--------------2-2-2-2-----2-2------------2-2-2-2------|
pm  ...              .......     ...            .......

Another Verse thingy:
D|-----------------------------------|-------|
A|-----------------------------------|-------|
F|-----------------------------------|-------|
C|--5--44-44--4-4-4--5--44--4-4--7/4-|-10/4--|
G|--5--44-44--4-4-4--5--44--4-4--7/4-|-10/4--|
C|--5--44-44--4-4-4--5--44--4-4--7/4-|-10/4--|

 (FOURTH PART)
D|-----------------------------------------------------------------|
A|-----------------------------------------------------------------|
F|-----------------------------------------------------------------|
C|--12-12-12-12------12-12-12-12------11-11-11-11----4-4-4-4--7----|
G|--12-12-12-12------12-12-12-12------11-11-11-11----4-4-4-4--7----|
C|--12-12-12-12------12-12-12-12------11-11-11-11----4-4-4-4--7----|
                -P-              -P-              -P-

Riff:
D|------------|
A|------------|
F|------------|
C|--7--9------|
G|--7--9------|
C|--7--9------|


I dunno, my brain is fried on this song.....so send corrections or post a
good version...lol. I tried, there are so many different riffs that I dont
even know what to call them.  I tried.
Get this song at:
bol.com
amazon.com

Copyrights:

Author: ?

Composer: ?

Publisher: ?

Details:

Language: English

Appearing on: From One (2002)

Share your thoughts

This form is protected by reCAPTCHA and the Google Privacy Policy and Terms of Service apply.

2 Comments found

kitty421

Wednesday 13th of October 2004 20:49

Hey Its pretty Good. I think its cool that you did all that just by listening to the song!! GOOD JOB! 😃

geetar89

Saturday 11th of October 2003 03:54

nothing tricky to this song, besides the weird intro part...thats the only part where you'll actually use the 7 stringer