Pressure 4-5

Pressure 4-5 - New Wave guitar tab

Your rating:
----------------------------------------------------------------------------
                   Pressure 4-5 - New Wave
-----------------------------------------------------------------------------

Tabbed by - Greg Aragon (thewrath13@hotmail.com)

I don't know if this band uses seven string guitars or what, but if you
have a normal six string and want to play along with the song, tune all
the strings down a full step, then tune the bottom string another full
step, so the strings are (C, G, C, F, A, D)


... - palm mute
\   - slide


Intro:
e|---------------------------------------------------------------------------|
B|---------------------------------------------------------------------------|
G|---------------------------------------------------------------------------|
D|---------------------------------------------------------------------------|
A|-8-8----------12-12-12-------8-8-8------------------12-12-12-------8-8-8---|
D|-8-8-10-10-10----------8-8-8-------0-0-0-0-10-10-10----------8-8-8-------5-|

e|---------------------------------------------------------------------------|
B|---------------------------------------------------------------------------|
G|---------------------------------------------------------------------------|
D|---8-8---------------------------------------------------------------------|
A|----------------12-12-12-------8-8-8------------------12-12-12-------8-8-8-|
D|-5-----10-10-10----------8-8-8-------0-0-0-0-10-10-10----------8-8-8-------|


Verse: (2x)
play same as intro, but palm mute it


Chorus: (2x)
e|-----1-------1-----1-------1-----------------------------------------------|
B|-----3-------3-----3-------3-----------------------------------------------|
G|---------------------------------------------------------------------------|
D|-1-0---0-1-0---1-0---0-1-0---5-5-5-5-5-5-5-5-5\4-4-4-4-4-4-4-4/5-5-5-5-5-5-|
A|-1-0---0-1-0---1-0---0-1-0---5-5-5-5-5-5-5-5-5\4-4-4-4-4-4-4-4/5-5-5-5-5-5-|
D|-1-0---0-1-0---1-0---0-1-0---5-5-5-5-5-5-5-5-5\4-4-4-4-4-4-4-4/5-5-5-5-5-5-|
         .             .

e|-------------------|
B|-------------------|
G|-------------------|
D|-5-5\4-4-4-4-4-4-4-|
A|-5-5\4-4-4-4-4-4-4-|
D|-5-5\4-4-4-4-4-4-4-|


Bridge:
e|---------------------------------------------------------------------|
B|---------------------------------------------------------------------|
G|---------------------------------------------------------------------|
D|---------------------------------------------------------------------|
A|----------12-12-12-------8-8-8------------------12-12-12-------8-8-8-|
D|-10-10-10----------8-8-8-------0-0-0-0-10-10-10----------8-8-8-------|


Repeat Verse (2x)

Repeat Chorus (2x)


Interlude: (figure out strumming) (play once through without distortion,
                                   then once through with distortion)
e|---------------------------------------------------------------------------|
B|---------------------------------------------------------------------------|
G|-7--------7--------10--------10--------7--------7--------10----------------|
D|-5--------4---------8---------7--------5--------4---------8----------------|
A|-5--------5---------8---------8--------5--------5---------8----7-7-7-7-----|
D|-5--------4---------8---------8--------5--------4---------8----7-7-7-7...--|
                                                                 .......

Repeat Chorus (2x)

Outro:
e|---------------------------------------------------------------------------|
B|---------------------------------------------------------------------------|
G|---------------------------------------------------------------------------|
D|---------------------------------------------------------------------------|
A|-5-5-5-5-5-5-5-5-5-5-5-5-5-5-5-5-5-5-5-5-5-5-5-5-5-5-5-5-5-5-5-5-8-8-8-8-8-|
D|-5-5-5-5-5-5-5-5-5-5-5-5-5-5-5-5-4-4-4-4-4-4-4-4-4-4-4-4-4-4-4-4-8-8-8-8-8-|

e|------------------------------------------------------|
B|------------------------------------------------------|
G|------------------------------------------------------|
D|------------------------------------------------------|
A|-8-8-8-8-8-8-8-8-8-8-8-8-8-8-8-8-8-8-8-8~----8~----5~-|
D|-8-8-8-8-8-8-8-8-8-8-8-7-7-7-7-7-7-7-7-7~----8~----5~-|

www.geocities.com/ggtabs07
==============================================================================
Get this song at:
bol.com
amazon.com

Copyrights:

Author: ?

Composer: ?

Publisher: SKG Music LLC

Details:

Released in: 2001

Language: English

Share your thoughts

This form is protected by reCAPTCHA and the Google Privacy Policy and Terms of Service apply.

0 Comments found