Pressure 4-5

Pressure 4-5 - Melt Me Down bass tab

Your rating:
Artist: Pressure 4-5
Song: Melt Me Down
Album: Burning The Process
Tuning (Low to High): C G C F


Intro: (Guitar and Dums Only)

Verse:
F---------------------------------------
C---------------------------------------
G---------------------------------------
C-----5-8-0-78-0-7-0--8-0-0-57-0-3-(0)--     ()Do not play right before Chorus

Chorus:
F---------------------------------------------
C---------------------------------------------
G---------------------------------------------
C-----5-5-5-55--0-0-0-00--8-8-8-88--3-3-3-77--

Bridge:
F-----------------------------------------------------------
C-----------------------------------------------------------
G-----------------------------------------------10-10--/10--
C-----5~---12~---8~---3--7---5~---12~---8~---3--------------

F--------------------------------------------
C--------------------------------------------
G--------------------------------------------
C-----1-1-1-11-1-1-1-13---1-1-1-11-1-1-1-13--     1s and 3s, not 11s and 13s

F-------------------------------------
C-------------------------------------
G-------------------------------------
C----555-888-777-555---555-888-777-1--

Outro:
F-------------------------------------------------
C-------------------------------------------------
G-------------------------------------------------
C-----5~---12~---8~---3--7---5~---12~---8~---1-3--

F----------------------------------------
C----------------------------------------
G----------------------------------------
C-----555-555-555-5-1---555-555-555-5-1--

These are the riffs throughout the song.  I'm sure you can easliy figure out how many times each part is played.  Easy song, except for the verse which may be hard for some people.  You just need to be fast to get it.

This is my first tab so go easy on me.
Get this song at:
bol.com
amazon.com

Copyrights:

Author: ?

Composer: ?

Publisher: SKG Music LLC

Details:

Released in: 2001

Language: English

Share your thoughts

This form is protected by reCAPTCHA and the Google Privacy Policy and Terms of Service apply.

0 Comments found