Parikrama

Parikrama - But It Rained guitar tab

Your rating:
Title: But it rained
Performed by: Parikrama

Trabscribed by : Abhishek.
Send any problems, complaints, praise to:) "abs621@yahoo.com".
Version 1.0 (I will update again.. first tab by me)
For lyrics and story: www.parikrama.com

Legends...

/    -> slide up
\    -> slide down
h    -> hammer on
p    -> pull off
hold -> hold the note for while
^    -> bend up (listen song for half and full bend, easy to understand)



Solos as follows:


At 00:19

--19-17-\16------16-----------\19-17--15h16p15------16--------------
-------------19-----17-19~~~~-------------------19-----17-19/-------
--------------------------------------------------------------------
--------------------------------------------------------------------
--------------------------------------------------------------------
--------------------------------------------------------------------


This is the violin part played on Guitar..

At 00:30

--12p11h12p11---9/7-------------------------------------------------
--------------------9/12--/16--\14----------------------------------
--------------------------------------------------------------------
--------------------------------------------------------------------
--------------------------------------------------------------------
--------------------------------------------------------------------


====================================
Chords and Chord picking in between.
Based on Basic chords : E A D B.
====================================
Skipping another violin part..
Kinda difficult...
====================================

Back to Guitar solo.. to the end of song.

At 3:45

--------------------------------------------------------------------
--------------------------------------------------------------------
-/14-\16-16-16^--13-14--11-13-14-16-14p13-11-9-13------8-9-9-6------
--------------------------------------------------------------------
--------------------------------------------------------------------
--------------------------------------------------------------------


Fast.. starting from \18


-----------------------------17--16h17--14h16--12h14----12\14-------
-------------------16-17-18--------------------------14-------------
-6-4-3--------\18---------------------------------------------------
-------6-4-3--------------------------------------------------------
--------------------------------------------------------------------
--------------------------------------------------------------------


-16-14-16-17-17/19--21^-21^-21^-21^--19-17-16-17-17--19-17-16-17-17-
--------------------------------------------------------------------
--------------------------------------------------------------------
--------------------------------------------------------------------
--------------------------------------------------------------------
--------------------------------------------------------------------

-19-17-16-17-19^-19^---19-17-16/14--14/12--12/-------------19-19----
------------------------------------------------14\16--17-----------
--------------------------------------------------------------------
--------------------------------------------------------------------
--------------------------------------------------------------------
--------------------------------------------------------------------

-------19-19-------19-19---14-16-17-16-14\16-----16/14--------------
-17-16-------16-14-------------------------------------16-14--------
-------------------------------------------------------------16-14--
--------------------------------------------------------------------
--------------------------------------------------------------------
--------------------------------------------------------------------

--------------14^--/12~~~-------------------------------------------
---------14\16------------------------------------------------------
-13h14p13-----------------------------------------------------------
--------------------------------------------------------------------
--------------------------------------------------------------------
--------------------------------------------------------------------
Get this song at:
bol.com
amazon.com

Copyrights:

Author: ?

Composer: ?

Publisher: ?

Details:

Language: English

Share your thoughts

This form is protected by reCAPTCHA and the Google Privacy Policy and Terms of Service apply.

0 Comments found