Papa Roach

Papa Roach - 05 Between Angels And Insects guitar tab

Your rating:
Artist � Papa roach
Album � Infest
Song � Between Angels and Insects
Tuning � Drop D (D, A, D, G, B, E)
Tabbed By � Xratedkiller

() - Palm Mute
h - hammer on
p - pull off

Intro
|----------------------------------------------------
|----------------------------------------------------
|----------------------------------------------------
|----------------------------------------------------
|----7---8---10---7---7h8---7---8---10---7---8h7-----
|--0---0---0---0---0-------8---8---8---8---8---------    Play w/ heavy distortion

|----------------------------------------------------
|----------------------------------------------------
|----------------------------------------------------
|----------------------------------------------------
|----7---8---10---7---7h8---7---8---10---7---7h8p7---
|--7---7---7---7---7-----10---10--10--10---10--------  Play w/ heavy distortion
Play the intro twice

|------------------------------------------------------
|------------------------------------------------------
|------------------------------------------------------
|--0-0-0-0--10-10-10-10-10--0-0-0-0--10-10-10-10-10----
|--0-0-0-0--10-10-10-10-10--0-0-0-0--10-10-10-10-10----
|--0-0-0-0--10-10-10-10-10--0-0-0-0--10-10-10-10-10----

|------------------------------------------------------
|------------------------------------------------------
|------------------------------------------------------
|--7-7-7-7--10-10-10-10-10--7-7-7-7--10-10-10-10-10----
|--7-7-7-7--10-10-10-10-10--7-7-7-7--10-10-10-10-10----
|--7-7-7-7--10-10-10-10-10--7-7-7-7--10-10-10-10-10----

|-----------------------------------------------------------------------------------
|-----------------------------------------------------------------------------------
|-----------------------------------------------------------------------------------
|--0-0-0-0--10-10-10-10-10--0-0-0-0--10-10-10-10-10---7-7-7-7--888888--33333-111111-
|--0-0-0-0--10-10-10-10-10--0-0-0-0--10-10-10-10-10---7-7-7-7--888888--33333-111111-
|--0-0-0-0--10-10-10-10-10--0-0-0-0--10-10-10-10-10---7-7-7-7--888888--33333-111111-

|-----------------------------------------------------------------------------------
|-----------------------------------------------------------------------------------
|---------------9\12--12/9------------------9\12--12\9------------------9\12--12/9--
|---------------x--x--x--x------------------x--x--x--x------------------x--x---x--x-
|-----------5-- 7\10--10/7---------------5--7\10--10/7---------------5--7\10--10/7-
|(0-0-0-0-0)---------------(3-3-3-3-3-3)---------------(5-5-5-5-5-5)----------------

|---------------------------------------------
|---------------------------------------------
|---------------------------------------------
|---------------------------------------------
|-----------------5--------------------------
|---7-7-7-7-7------8\10--8\10--8\10----------
play twice on the third time leave out 8\10 and fill with what is in
the bar above this the 7\10 thing

|------------------------------------------------------
|------------------------------------------------------
|------------------------------------------------------
|--0-0-0-0--10-10-10-10-10--0-0-0-0--10-10-10-10-10----
|--0-0-0-0--10-10-10-10-10--0-0-0-0--10-10-10-10-10----
|--0-0-0-0--10-10-10-10-10--0-0-0-0--10-10-10-10-10----

|------------------------------------------------------
|------------------------------------------------------
|------------------------------------------------------
|--7-7-7-7--10-10-10-10-10--7-7-7-7--10-10-10-10-10----
|--7-7-7-7--10-10-10-10-10--7-7-7-7--10-10-10-10-10----
|--7-7-7-7--10-10-10-10-10--7-7-7-7--10-10-10-10-10----
play twice on the first time slide from
power chord 10 to 0 on the second time play as is

|-----------------------------------------------------------------------------------
|-----------------------------------------------------------------------------------
|---------------9\12--12/9------------------9\12--12\9------------------9\12--12/9--
|---------------x--x--x--x------------------x--x--x--x------------------x--x---x--x-
|-----------5-- 7\10--10/7---------------5--7\10--10/7---------------5--7\10--10/7-
|(0-0-0-0-0)---------------(3-3-3-3-3-3)---------------(5-5-5-5-5-5)----------------

|---------------------------------------------
|---------------------------------------------
|---------------------------------------------
|---------------------------------------------
|-----------------5--------------------------
|--(7-7-7-7-7)------8\10--8\10--8\10---- play twice


|------------------------------------------------------
|------------------------------------------------------
|------------------------------------------------------
|--0-0-0-0--10-10-10-10-10--0-0-0-0--10-10-10-10-10----
|--0-0-0-0--10-10-10-10-10--0-0-0-0--10-10-10-10-10----
|--0-0-0-0--10-10-10-10-10--0-0-0-0--10-10-10-10-10----

|------------------------------------------------------
|------------------------------------------------------
|------------------------------------------------------
|--7-7-7-7--10-10-10-10-10--7-7-7-7--10-10-10-10-10----
|--7-7-7-7--10-10-10-10-10--7-7-7-7--10-10-10-10-10----
|--7-7-7-7--10-10-10-10-10--7-7-7-7--10-10-10-10-10----
play twice on the first time slide from
power chord 10 to 0 on the second time play as is

|------------------------------|
|------------------------------|
|----10-----10-----10-----10---|
|-----0------8------7-----10---|
|-----0------8------7-----10---|
|-----0------8------7-----10---|

During bass solo
|-----------------------------------------------------------------------------------
|-----------------------------------------------------------------------------------
|-----------------------------------------------------------------------------------
|-----------------------------------------------------------------------------------
|--7--8---10--7--7h8--7--8---10--7--8h7---7--8--10---7---7h8---7---8---10--7-7h8p7-
|0---0---0---0---0---8--8---8---8---8---7----7----7---7---7---10--10--10--10-10--
Play 3 times

|------------------------------------------------------
|------------------------------------------------------
|------------------------------------------------------
|--0-0-0-0--10-10-10-10-10--0-0-0-0--10-10-10-10-10----
|--0-0-0-0--10-10-10-10-10--0-0-0-0--10-10-10-10-10----
|--0-0-0-0--10-10-10-10-10--0-0-0-0--10-10-10-10-10----

|------------------------------------------------------
|------------------------------------------------------
|------------------------------------------------------
|--7-7-7-7--10-10-10-10-10--7-7-7-7--10-10-10-10-10----
|--7-7-7-7--10-10-10-10-10--7-7-7-7--10-10-10-10-10----
|--7-7-7-7--10-10-10-10-10--7-7-7-7--10-10-10-10-10---- play three times

Play till the end
Get this song at:
bol.com
amazon.com

Copyrights:

Author: ?

Composer: ?

Publisher: ?

Details:

Language: English

Share your thoughts

This form is protected by reCAPTCHA and the Google Privacy Policy and Terms of Service apply.

0 Comments found