Outer Circle

Outer Circle - Sloburn guitar tab

Your rating:
SloBurn
by Outer Circle
copyright Tooth and Nail Records
tabbed by Agent Jules
Corrected by Jeremy Smith (smitty23@hotmail.com)

verse:

e|------------------
B|------------------
G|------------------
D|-2-2-2--4/5-5-5-5-
A|-2-2-2--4/5-5-5-5-
E|-0-0-0--2/3-3-3-3-

Chorus:

e|-------------------------------------
B|-------------------------------------
G|----------5-5-5-5-----------5-5--7-7-
D|-2-2-2-2--5-5-5-5--2-2-2-2--5-5--7-7-
A|-2-2-2-2--3-3-3-3--2-2-2-2--3-3--5-5-
E|-0-0-0-0-----------0-0-0-0-----------

Verse
Chorus

Bridge:

e|--------------
B|--------------
G|-2------4-----
D|-2-x16--4-x16-
A|-0------2-----
E|--------------
|-------PM------|

Verse
Chorus
Bridge
Verse

Solo:

e|--------------------------------------
B|--------------------------------------
G|-----4-2-----4-5-4-----4-2------------
D|-2-2-----5-5-------2-2-----5-5--4-5-4-
A|--------------------------------------
E|--------------------------------------


e|-----------------------------
B|-5-5-3-5-3-------------------
G|-----------5-5-4-4-2-2-------
D|-----------------------5-4-2-
A|-----------------------------
E|-----------------------------

Verse
End


That's about it. The solo is pretty close...I tried
Get this song at:
bol.com
amazon.com

Copyrights:

Author: ?

Composer: ?

Publisher: Tooth & Nail Records

Details:

Released in: 1998

Language: English

Share your thoughts

This form is protected by reCAPTCHA and the Google Privacy Policy and Terms of Service apply.

0 Comments found