Outer Circle

Outer Circle - Parasite guitar chord

Your rating:
Parasite
Outer Circle
copyright Tooth and Nail
Tabbed by Splat
Splat00@rocketmail.com (zero's not oh's)




        B        C       D(In Bridge)    D(In Verse)    E     F                A             G
 E ---------------------------------------------------------------------------------------------------------------------------------------
 B ---------------------------------------------------------------------------------------------------------------------------------------
 G ---------------------7---------------------------------9-----10---------------------------------------------------------------------
 D ---9-------10-------7--------------12---------------9------10----------7----------5-----------------------------------------------
 A----9-------8--------5--------------12---------------7-------8-----------7----------5-------------------------------------------
 E ----7-------8------------------------10-----------------------------------5-----------3----------------------------------------------




Verse
                                                                                                               Part A                Part B
E-------------------------------------------------------------------------------|----------------|----------------------------------------
B----------------------------------------------------------------------------- -|-----------------|----------------------------------------
G----------------------------------------------------------------------------- -|-----------------|----------------------------------------
D---9---9---9---9--9----9-----10---7----12----10-------9----9---9--9- -|-10------5-----|-----10------12-----------------------A---9---9---9---9--9----9------8----7----12----10-------9---9---9---9- |---8------5---- |------8-------10-----------------------
E----7---7---7---7--7---7-------8----5----10-----8-------7---7---7---7--|---8-------3----|------8-------10-----------------------


Play Part A every time except for the last verse before the chorus, where you play part B.


Chorus

E    B    A    C


Bridge

E    F    D    F

E    D


Song Order
Verse
Verse
Chorus
Verse
Chorus
Bridge
Verse
Verse
Chorus
Chorus
End on B

I apoligize for the appearence of this tab.  Kinda sloppy....sorry.
Well, I'm pretty sure it's correct.  E-mail if ya got any corrections or comments or death threats....whatever.
Just make sure you e-mail me!  Splat00@rocketmail.com  (zero's not oh's)
Get this song at:
bol.com
amazon.com

Copyrights:

Author: ?

Composer: ?

Publisher: Tooth & Nail Records

Details:

Released in: 1998

Language: English

Share your thoughts

This form is protected by reCAPTCHA and the Google Privacy Policy and Terms of Service apply.

0 Comments found