Outer Circle

Outer Circle - Dirty Hands bass tab

Your rating:
G----------    -------------------
D----------    ----2---2----------
A----------    -44---4------------
E-33333333- x2 ----------33333333- x4

G-----    ----------------    -----    -----
D-----    ---2--2---------    -----    -----
A-----    -44--4----------    -----    -----
E-5323 x4 --------33333333 x4 -5323 x3 -5322 x1

G---------------------    --------
D---------------------    --------
A--------2----------2-    --------
E-222225--4--222225--3 x4 -0454-22 x2

G-------------------------    ---------
D-------------------------    ---------
A----------2-----------2--    ---------
E-22222-55--4---222225---3 x4 -0454--22 x2

G-----------------------
D-----------------------
A-22222--454---22222----
E--------------------545 x3

G------------------------    -------    --------
D------------------------    -------    --------
A-22222--454---22222-----    -------    --------
E--------------------5432 x1 -22-454 x4 0454-22-x2

G-----------------------    ---------
D-----------------------    ---------
A---------2-----------2-    ---------
E-2222255--4--2222255--3 x4 -0454--22 x2
Get this song at:
bol.com
amazon.com

Copyrights:

Author: ?

Composer: ?

Publisher: Tooth & Nail Records

Details:

Released in: 1998

Language: English

Share your thoughts

This form is protected by reCAPTCHA and the Google Privacy Policy and Terms of Service apply.

0 Comments found