Local H

Local H - Bound For The Floor bass tab

Your rating:
Artist: Local H
Song: Bound for the Floor
Album: As Good As Dead
Tabbed By: Nick Blanchard (moose55@qwest.net)

-------------------------------------------------------------------------------------
The tabs on the site aren't exactly complete, so here this is to complete the whole song!
-------------------------------------------------------------------------------------

*= mute strings by lifting off frets

Intro:
G: |--------------------------------------------------------------------|
D: |--Rest for 1.5 measures---------------------------------------------|
A: |--(Listen to song to get it down)--------------2*--2-2--2-3-2-0-----|
E: |---------------------------------0h3*--3*--3-3----------------------|

Verse:
G: |-----------------------------------------------------------|
D: |-2*--2*--2-2-----------------------------------------------|
A: |-------------3*--3*--3-3-3---------------2*--2-2*--2-3-2-0-|
E: |---------------------------0-3*--3*--3-3-------------------|

Chorus:
G: |--------------------------------------------------------|
D: |--------------------------------------------------------|
A: |-0--0--0-0--3--3-3--3-3-3---------------5--5-5--2-3-2-0-|
E: |--------------------------0--3--3--3-3------------------|

Alternate Chorus:
G: |---------------------------------------------------------------|
D: |---------------------------------------------------------------|
A: |-0--0--0-0-0--3--3-3--3-3-3--2-3-2-0-----------5--5-5--2-3-2-0-|
E: |-------------------------------------3--3--3-3-----------------|

Interlude:
G: |----------------------------------------------------------------|
D: |----------------------------------------------------------------|
A: |-0-0-0-0-0-0-0-0-3-3-3-3-3-3-3-------------------5-5-5-5-5-5-5-5|
E: |-------------------------------0-3-3-3-3-3-3-3-3----------------|

Outro:

G: |------------------------------------------|
D: |-2--2--2-2--3--3-3--3-3-3--------------5*-|
A: |--------------------------0--3--3--3-3----|
E: |------------------------------------------|

-------------------------------------------------------------------------------------------
Order:

Intro
Verse (x5)
Chorus (x2)
Verse (x4)
Chorus (x6)
Interlude (x4)
Chorus (x2)
Alt. Chorus (x2)
Verse (x1)
Outro
-------------------------------------------------------------------------------------------
You'll have to listen to the song to get the timing right, but it's a really easy song
to learn, took me about 5 minutes (of course I'm a huge Local H fan).  The song ends sharply
on the last note.  Any questions or comments can be sent to moose1955@msn.net.  Enjoy :).
Get this song at:
bol.com
amazon.com

Copyrights:

Author: Local H

Composer: ?

Publisher: Cleopatra Records

Details:

Released in: 1996

Language: English

Share your thoughts

This form is protected by reCAPTCHA and the Google Privacy Policy and Terms of Service apply.

0 Comments found