Lenny Kravitz

Lenny Kravitz - Greatest Hits - Fly Away bass tab

Your rating:
FLY AWAY (Bassline)
As recorded by Lenny Kravitz
(From the 2000 Album LENNY KRAVITZ GREATEST HITS)



 Words and Music by Lenny Kravitz



Gtr I (E A D G) - 'Standard'
Gtr II (E A D G) - 'Standard'


 Intro
  Moderately Slow Rock Q=84
 4/4
  Gtr I
  Wx4            e S S S S S S E S S S S S S
|------------||------------------------------|
|------------||o-----------------------------|
|------------||o-----------2---3-3-3-3-3---3-|
|------------||--5-5-5-5-5---x---------------|


                                       Verse
                                    Gtr II
  e S S S S S S S S S S S S S S         S E S E E S S  E E E
|--------------------------------||-||------------------------|
|-------------------------------o||-||o-----7---------10------|
|---------------5---5-5-5-5---5-o||-||o-----------------------|
|-3-3-3-3-3---3------------------||-||--4s5-----x-7s8------x--|


                                 Chorus
                                  Gtr I
  S E S E E S  E  S E S S  4x     e S S S S S S E S S S S S S
|--------------------------||-||-------------------------------|
|-----5----------12-------o||-||o------------------------------|
|-------------------------o||-||o-----------2---3-3-3-3-3---3--|
|-2s3-----x-9s10------x-0--||-||--5-5-5-5-5---x----------------|


                                       Verse
                                        Gtr II
  e S S S S S S S S S S S S S S  4x     S E S E E S S  E E E
|--------------------------------||-||------------------------|
|-------------------------------o||-||o-----7---------10------|
|---------------5---5-5-5-5---5-o||-||o-----------------------|
|-3-3-3-3-3---3------------------||-||--4s5-----x-7s8------x--|


                                 Chorus
                                  Gtr I
  S E S E E S  E  S E S S  4x     e S S S S S S E S S S S S S
|--------------------------||-||-------------------------------|
|-----5----------12-------o||-||o------------------------------|
|-------------------------o||-||o-----------2---3-3-3-3-3---3--|
|-2s3-----x-9s10------x-0--||-||--5-5-5-5-5---x----------------|


                                       Interlude
                                        Gtr II
  e S S S S S S S S S S S S S S  4x     S E S E E S S  E E E
|--------------------------------||-||------------------------|
|-------------------------------o||-||o-----7---------10------|
|---------------5---5-5-5-5---5-o||-||o-----------------------|
|-3-3-3-3-3---3------------------||-||--4s5-----x-7s8------x--|


                                 Chorus
                                  Gtr I
  S E S E E S  E  S E S S  4x     e S S S S S S E S S S S S S
|--------------------------||-||-------------------------------|
|-----5----------12-------o||-||o------------------------------|
|-------------------------o||-||o-----------2---3-3-3-3-3---3--|
|-2s3-----x-9s10------x-0--||-||--5-5-5-5-5---x----------------|


                                       Outro-Chorus
  e S S S S S S S S S S S S S S  4x     e S S S S S S E S S S S S S
|--------------------------------||-||-------------------------------|
|-------------------------------o||-||o------------------------------|
|---------------5---5-5-5-5---5-o||-||o-----------2---3-3-3-3-3---3--|
|-3-3-3-3-3---3------------------||-||--5-5-5-5-5---x----------------|


  e S S S S S S S S S S S S S S  8x W
|--------------------------------||------*|
|-------------------------------o||------*|
|---------------5---5-5-5-5---5-o||------*|
|-3-3-3-3-3---3------------------||------*|




--------------------------------------------------------------------------------


Duration Legend
---------------
W - whole; H - half; Q - quarter; E - 8th; S - 16th; T - 32nd; X - 64th; a - acciaccatura
+ - note tied to previous; . - note dotted; .. - note double dotted
Uncapitalized letters represent notes that are staccato (1/2 duration)
Irregular groupings are notated above the duration line
Duration letters will always appear directly above the note/fret number it represents the
duration for.  Duration letters with no fret number below them represent rests.  Multi-
bar rests are notated in the form Wxn, where n is the number of bars to rest for.  Low
melody durations appear below the staff

Tablature Legend
----------------
 h   - hammer-on
 p   - pull-off
 b   - bend
 pb  - pre-bend
 r   - bend release (if no number after the r, then release immediately)
 /\  - slide into or out of (from/to "nowhere")
 s   - legato slide
 S   - shift slide
 - natural harmonic
[n]  - artificial harmonic
n(n) - tapped harmonic
 ~   - vibrato
 tr  - trill
 T   - tap
 TP  - trem. picking
 PM  - palm muting
\n/  - tremolo bar dip; n = amount to dip
 \n  - tremolo bar down
 n/  - tremolo bar up
/n\  - tremolo bar inverted dip
 =   - hold bend; also acts as connecting device for hammers/pulls
  - volume swell (louder/softer)
 x   - on rhythm slash represents muted slash
 o   - on rhythm slash represents single note slash

Misc Legend
-----------
 |  - bar
||  - double bar
||o - repeat start
o|| - repeat end
*|  - double bar (ending)
 :  - bar (freetime)
 $  - Segno
 &  - Coda
Tempo markers -  = BPM(8/16=s8/s16), where s8 = swing 8ths, s16 = swing 16ths
Get this song at:
bol.com
amazon.com

Copyrights:

Author: ?

Composer: ?

Publisher: ?

Details:

Language: English

Share your thoughts

This form is protected by reCAPTCHA and the Google Privacy Policy and Terms of Service apply.

0 Comments found