Lenny Kravitz

Lenny Kravitz - Fly Away Ver 2 guitar tab

Your rating:
Fly Away



CHORDS:
     A     C     G      D
- - - - - - - - - - - - - - - - - - -
- - -2 - - - - - - - - - - - - - - --
- - -2 - - -5 - - - -- - -7 - - - ---
- - -2 - - -5 - - -5 - - -7 - - - ---
- - -0 - - -3 - - -5 - - -5 - - - ---
- - - - - - - - - -3 - - - - - - - --

LYRICS:

a
I wish that I could fly
c
Into the sky
g
So very high
d
Just like a dragonfly
a                    c
I'd fly above the trees
g                   d
Over the seas in all degrees
a                  c            g             d
To anywhere I please

a                 c
Oh I want to get away
g           d        a
I want to fly----- away
c          g          d
Yeah---- yeah---- yeah-----------

Oh I want to get away
I want to fly away
Yeah yeah yeah
a                 c
Let's go and see the stars
g                      d
The milky way or even Mars
a          c         g       d
Where it could just be ours
a              c
Let's fade into the sun
g
Let your spirit fly
d
Where we are one
a             c
Just for a little fun
g           d
Oh oh oh yeah !

I want to get away
I want to fly away
Yeah yeah yeah

I want to get away
I want to fly away
Yeah yeah yeah

I got to get away
Feel I got to get away
Oh oh oh yeah

I want to get away
I want to fly away
Yeah with you yeah yeah
Oh Yeah !

I want to get away
I want to fly away
Yeah with you yeah yeah
I got to get away

I want to get away X4
Yeah
I want to get away
I want to fly away
Yeah with you yeah yeah
I got to get away

I want to get away X4
Yeah

I want to get away
I want to fly away
Yeah with you
Yeah yeah yeah yeah yeah




Source		: ROB
E-Mail		: rockerrob@aol.com





The above tab isn't necessarily wrong, but the tabber left out a chord
and he positions some of the chords incorrectly, this is how the
pattern goes:

E|----------------------------------------------------------------------|
B|--------------------------------------------------------7-7-7-7-7-----|
G|-----6-6-6-6-6---8---9--9--9--9--9---xx--4-4-4-4-4--xx--7-7-7-7-7-xx--|
D|-----7-7-7-7-7---9---1010101010------xx--5-5-5-5-5--xx--7-7-7-7-7-xx--|
A|-----7-7-7-7-7---9---1010101010------xx--5-5-5-5-5--xx--5-5-5-5-5-xx--|
E|-----5-5-5-5-5---7---8--8--8--8--8---xx--3-3-3-3-3--xx------------xx--|

This is how we play it in our band and it sounds the exact same,
not to mention it's how he plays it on the music video




Update		: Chris Cook
E-Mail		: grenday15@aol.com
Get this song at:
bol.com
amazon.com

Copyrights:

Author: ?

Composer: ?

Publisher: ?

Details:

Language: English

Share your thoughts

This form is protected by reCAPTCHA and the Google Privacy Policy and Terms of Service apply.

0 Comments found