Lenny Kravitz

Lenny Kravitz - California guitar tab

Your rating:
Lenny Kravitz - California

Standard Tuning


Riff 1:
--------------------------------------------------------------|
--------------------------------------------------------------|
-------------------------------------------------x-5-5---4-4-4|
-2-2-2-2-2-2-2-2-6-6-6-6-6-6-6-6-7-7-7-7-7-7-7-7-x-5-5---4-4-4|
-2-2-2-2-2-2-2-2-6-6-6-6-6-6-6-6-7-7-7-7-7-7-7-7-x-3-3---2-2-2|
-0-0-0-0-0-0-0-0-4-4-4-4-4-4-4-4-5-5-5-5-5-5-5-5--------------|

Riff 2:
---------------------------------|
---------------------------------|
-----------------4-4-4-4-4-4-4-4-|
-4-4-4-4-4-4-4-4-4-4-4-4-4-4-4-4-|
-4-4-4-4-4-4-4-4-2-2-2-2-2-2-2-2-|
-2-2-2-2-2-2-2-2-----------------|

Riff 3:
---------------------------------|
---------------------------------|
-6-6-6-6-6-6-6-6-7-7-7-7-7-7-7-7b-|
-6-6-6-6-6-6-6-6-7-7-7-7-7-7-7-7b-|
-4-4-4-4-4-4-4-4-5-5-5-5-5-5-5-5b-|
---------------------------------|

Riff 4:
------------------------------------------------------------|
------------------------------------------------------------|
------------------------------------------------------------|
2-2-----------2-2---------2--5-5-5-5-5-5-5-5-7-7-7-7-7-7-7-7|
2-2-----------2-2---------2--5-5-5-5-5-5-5-5-7-7-7-7-7-7-7-7|
0-0-b3-0-b3-0-0-0-b3-0-b3-0--3-3-3-3-3-3-3-3-5-5-5-5-5-5-5-5|


Solo
-------------------------------------------------------------
-----------------------14-16---------------------------------
--9/16-16-16-16-----16-------16--16-16--16-14-16-14-13-11----
----------------------------------------------------------11-
-------------------------------------------------------------
-------------------------------------------------------------

----------------|
----------------|
-9-11bp9-11-9---|
----------------|
----------------|
----------------|

-15p12----(7x)---15p14p12-15p14p12-------------------------
------12----------------------------15p14p12-15p14p12------
-------------------------------------------------------14b-
-----------------------------------------------------------
-----------------------------------------------------------
-----------------------------------------------------------

-----------------|
12-----12-----12-|
---14b----14b----|
-----------------|
-----------------|
-----------------|

----------------12-15fb-15--12-15b-12---------------------
-----12------12-----------------------14-15-15b-15--12-14-
-14b----14b-----------------------------------------------
----------------------------------------------------------
----------------------------------------------------------
----------------------------------------------------------

------------------|
12----------------|
---14-13h14-13-/0-|
------------------|
------------------|
------------------|


I was converted to the other side
From the day I'd gotten there
I met a girl who took me on a ride
I was young I had no cares

When I moved to California
California

She played me records I had never heard
While we toked on purple hairs
Who, Zeppelin, Beatles
Kiss, The Rolling Stones
While we played guitars in air

When I moved to California
California
California
California love ! (Riff 3)

Venice Beach and P.O.P.
Station 26 was free

Jeff Ho and Horizons west
Dogtown Skates they were the best

Hang Ten, O.P. were the brands
Don't forget the two-tone Vans

Solo
Guitar 2 playing Riff 1

I miss the Apple and my schoolyard boys
Nothing ever will compare
But now I skateboard
With my surfer girl
And we really are a pair

(Riff 2)
When I moved to California
California
California
California love ! (Riff 3)
Get this song at:
bol.com
amazon.com

Copyrights:

Author: ?

Composer: ?

Publisher: Virgin Records America Inc.

Details:

Released in: 2004

Language: English

Appearing on: Baptism (2004) , Forever Best! (2005) , Greatest Hits (2008)

Share your thoughts

This form is protected by reCAPTCHA and the Google Privacy Policy and Terms of Service apply.

0 Comments found