Judas Priest

Judas Priest - Youve Got Another Thing Coming bass tab

Your rating:
"YOU'VE GOT ANOTHER THING COMING"
BY JUDAS PRIEST
TABBED BY FRANKMAN

                              INTRO

G-----------------------------------------------------------------
D-----------------------------------------------------------------
A-----------------------------------------------------------------
E-2-2-2-2-2-2-2-2-2-2-2-2-2-2-2-2-2-2-2-2-2-2-2-2-2-2-2-2-2-2-2-2-

G---------------------------------------------------------------
D--------------------------------------------------------------- play this
A-------------------------------------------------0-----0-2-0--- line twice
E-2-2-2-2-2-2-2-2-2-2-2-2-2-2-2-2-2-2-2-2-2-2-2-2---2-0-------2-

                            VERSE

G---------
D---------
A--------- repeat 22 times
E-2-2-2-2-

G---------------------------------------------------------
D---------------------------------------------------------
A---------------5-5-5-5-5-5-5-2-2-2-2-2-2-2---------------
E-2-2-2-2-2-2-2-----------------------------2-2-2-2-2-2-2-

G---------------------------------------------------------
D---------------------------------------------------------
A---------------5-5-5-5-5-5-5-2-2-2-2-2-2-2-4-4-4-4-4-4-4-
E-2-2-2-2-2-2-2-------------------------------------------

                        CHORUS

G---------------------------------------------------------------
D---------------------------------------------------------------
A-------------------------------------------------0-----0-2-0---
E-2-2-2-2-2-2-2-2-2-2-2-2-2-2-2-2-2-2-2-2-2-2-2-2---2-0-------2-


                       VERSE

                      CHORUS

                     INTERLUDE

G-------------------------------
D-------------------------------
A-2---2---0-------2---2---0---4-
E-------------2-----------------

                     GUITAR SOLO(play like a verse)

                           VERSE

                          CHORUS
Get this song at:
bol.com
amazon.com

Copyrights:

Author: Glenn Tipton, K. K. Downing, Rob Halford

Composer: ?

Publisher: Priest Music Ltd.

Details:

Released in: 2016

Language: English

Appearing on: Battle Cry (2016) , Screaming for Vengeance (1982) , '98 Live Meltdown (1998) , Live in London (2003)

Share your thoughts

This form is protected by reCAPTCHA and the Google Privacy Policy and Terms of Service apply.

0 Comments found