Judas Priest

Judas Priest - Desert Plains guitar tab

Your rating:
Date: Mon, 23 Mar 1998 17:45:52 -0800
!From: Judy Letostak 
Subject: TAB:Judas Priest - Desert Plains

Judas Priest - Desert Plains
letostak@ix.netcom.com (Judy Letostak)
Metal Edge BBS (619)423-4970
http://www.netcom.com/~letostak/main.htm

lyrics are at the end of the file


Intro
---------------------------------------------------------
----------------------------------4----------------------
------------5--3---------------5--3--3-----------5--3----
------------5--3--3------------5-----3-----------5--3--3-
----1--3----------3------1--3--------------1--3--------3-
-3--------------------3-----------------3----------------


---------------------------------------------------------
---------------------------------------------------------
---------------------------------------------------------
---------------------------------------------------------
----1--3-hold--------------------------------------------
-3-------------------------------------------------------

Verse

---------------------------------------------------------
---------------------------------4-----------------------
----------5--3----------------5--3--3--------------------
----------5--3--3-------------5-----3--------------------
----1--3--------3-------1--3-----------------------------
-3-------------------3-----------------------------------


Chorus

---------------------------------------------------------
-----------------------4---------------------------------
-----------3-----5-----3----------------------5----------
-----------3-----5----------------------------5----------
----1--------------------------1---------3--------5-5----
-3-----4~-------------------3-----4------1--------3-3----
                                  hold


Bridge 2x

---------------------------------------------------------
---------------------------------------------------------
-----------7--------5-----------------7--------7--------5
---------7-------5-----------5-----7--------7--------5---
----1/5-------3-----------5-----5--------5--------3------
-3---------------------3---------------------------------


-------------|
-------------|
-------------|End bridge
-------5-----|
----5--------|
-3-----------|


Lead

---------------------------------------------------------
-----------5b(7)----8b(10)-etc---------------------------
--5--2--2------------------------------------------------
--5------------------------------------------------------
---------------------------------------------------------
---------------------------------------------------------

Verse
Chorus
Verse
Bridge fade to end



Metal Edge BBS (619)423-4970  (San Diego, CA  USA)
Over 15,000 Guitar Tabs, pictures, construction docs, lessons,
interviews, sound files, lyrics, programs.
Over 4 Gigz of MP3s
===========================================================
h = hammeron                          ps = pick scrape
p = pulloff                           % = repeat phrase
~ = vibrato                           letostak@ix.netcom.com
b = bend                              + natural harmonic
/\ = Slide
* = Artificial Harmonic
x = ghost note
tr = trill
===========================================================
Get this song at:
bol.com
amazon.com

Copyrights:

Author: Glenn Tipton, K. K. Downing, Rob Halford

Composer: ?

Publisher: Sony Music Entertainment Inc

Details:

Released in: 2011

Language: English

Appearing on: Point of Entry (1981) , Metal Works (1993) , Live in London (2003) , Metalogy (2004)

Share your thoughts

This form is protected by reCAPTCHA and the Google Privacy Policy and Terms of Service apply.

0 Comments found