J Church

J Church - Tight Rope 2 guitar tab

Your rating:
-------------------------------------------------------------------------------
TIGHT ROPE - J Church
-------------------------------------------------------------------------------

intro riff
-8--5-3-5---8--5-3---8--5-3-5--------
-------------------------------4p3-1-
-------------------------------------
-------------------------------------
-------------------------------------
-------------------------------------

intro/verse
----------------------------------------- end intro chord: -----
----------------------------------------- -----
----------------------------------------- --5--
-3--3-3--3-3--3-3--3-5--5-5--5-5--5-4--4- --5--
-3--3-3--3-3--3-3--3-5--5-5--5-5--5-4--4- --3--
-1--1-1--1-1--1-1--1-3--3-3--3-3--3-2--2- -----

pre chorus
--------------------------------------------------------------------------------
--------------------------------------------------------------------------------
-5--5-5--5-5--5-5--5------------------------------------------------------------
-5--5-5--5-5--5-5--5-2--2-2--2-2--2-2--2-3--3-3--3-3--3-3--3-3--3-3--3-3--3-3--3
-3--3-3--3-3--3-3--3-2--2-2--2-2--2-2--2-3--3-3--3-3--3-3--3-3--3-3--3-3--3-3--3
---------------------0--0-0--0-0--0-0--0-1--1-1--1-1--1-1--1-1--1-1--1-1--1-1--1

chorus
-------------------------------------------------
-------------------------------------------------
-2-----------------------2---5--5-5--5-5--5-5-5--
-2---3--3-3--3-3--3-3-3--2---5--3-3--3-3--3-5-5--
-0---3--3-3--3-3--3-3-3--0---3--3-3--3-3--3-3-3--
-----1--1-1--1-1--1-1-1--------------------------

cont'd
---------------------------------------------------------------
---------------------------------------------------------------
-2--2-2--2-2--2-2--2-------------------------------------------
-2--2-2--2-2--2-2--2-3--3-3--3-3--3-5--5-5--5-5--5-7--7-7--7-7-
-0--0-0--0-0--0-0--0-3--3-3--3-3--3-5--5-5--5-5--3-7--7-7--7-7-
---------------------1--1-1--1-1--1-3--3-3--3-3--3-5--5-5--5-5-

bridge this is basically it, i didnt put right # of strums or rythm tho
---------------------------
-5-5-5-5-5-5-5p3h5-5-5-5-5-
---------------------------
---------------------------
---------------------------
---------------------------

end
--------------------------------------------------------------
--------------------------------------------------------------
-5--5-5--5-5--5-5--5-------------------------------5--5-5--5-5
-5--5-5--5-5--5-5--5-3--3-3--3-3--3-5--5-5--5-5--5-5--5-5--5-5
-3--3-3--3-3--3-3--3-3--3-3--3-3--3-5--5-5--5-5--5-3--3-3--3-3
---------------------1--1-1--1-1--1-3--3-3--3-3--3------------

-------------------------------------------------------------------------------
Get this song at:
bol.com
amazon.com

Copyrights:

Author: ?

Composer: ?

Publisher: ?

Details:

Language: English

Share your thoughts

This form is protected by reCAPTCHA and the Google Privacy Policy and Terms of Service apply.

0 Comments found