Half Man Half Biscuit (HMHB)

Half Man Half Biscuit (HMHB) - The Bastard Son Of Dean Friedman guitar tab

Your rating:
Date: Mon, 12 Aug 2002 23:07:05 +0100 (BST)
From: =?iso-8859-1?q?=20?= 
Subject: h/half_man_half_biscuit/the_bastard_son_of_dean_friedman.tab

Title: The Bastard Son Of Dean Friedman
Band: Half Man Half Biscuit
Album: ACD (1987)

tabbed by scef (email: funnell_teen_spirit@yahoo.com)

only they could write this song!


intro:

play this bit 8 times (it's pretty quick so best to
use alternate strumming)
e--4/5--5--5--5--5--5--5--5--5--5--5--5--|
B--6/7--7--7--7--7--7--7--7--7--7--7--7--|
G--6/7--7--7--7--7--7--7--7--7--7--7--7--|
D--6/7--7--7--7--7--7--7--7--7--7--7--7--|
A--4/5--5--5--5--5--5--5--5--5--5--5--5--|
E----------------------------------------|

then this bit just the once
e----2------------3----------(2)-----------(0)-|
B----3------------0----------(3)-----------(2)-|
G----2------------0----------(2)-----------(2)-|
D----0------------0----------(0)-----------(2)-|
A-----------------2------------------------(0)-|
E-----------------3----------------------------|
                              |             |
                              |             |
                              V             V
                      these bits are optional - I don't
                      think they're actually played but
                      it demonstrates the chord
                      progression used

the organ bit over the above is: (call it organ bit A)
e-------5-7-5---------------------5-7-5-----5---|-----|
B-5---7-------7-7-8-7-5-7-7-5---7-------7-8---7-|-5-7-|
G---7-------------------------7-----------------|-----|
A-----------------------------------------------|-----|
                                               /     /
                                              /     /
                                           don't play
                                           1st time
verse
D  xx0232
G  320003
A  x02220
F# 244322

       D             G
Get this song at:
bol.com
amazon.com

Copyrights:

Author: ?

Composer: ?

Publisher: ?

Details:

Language: English

Share your thoughts

This form is protected by reCAPTCHA and the Google Privacy Policy and Terms of Service apply.

0 Comments found