Green Day

Green Day - Good Riddance Time Of Your Life Ver 9 guitar tab

Your rating:
Good Riddance (Time of you life)
Green Day

I think this a slightly more accurate tab of Good Riddance based on the tab
from quicksannd@aol.com.

Normal tuning - EADGBE

note 1: The high E string is not used at all, but you might want to keep
        your little finger on fret 3 as playing that accidentally shouldn't
        affect the sound too bad as it could be part of every chord used.

note 2: Following the first chorus, strumming is used more than picking -
        listen to the record to hear what I mean. However, the picking of
        the B string followed by the G string before each chord change
        remains pretty constant.

------
Chords
------

G    |32003x
Cadd9|x3203x
Dsus4|xx023x
Em7  |02203x

-----
Intro
-----

1|---------------------------------|---------------------------------|
2|---------------------------------|---------------------------------|
3|---------0-----------------------|---------0-----------------------|
4|-------------0-------------------|-------------0-------------------|
5|---------------------------------|---------------------------------|
6|-3---3---------------------------|-3---3---------------------------|
   1   +   2   +   3   +   4   +     1   +   2   +   3   +   4   +

   G				     Cadd9	     Dsus4
1|---------------------------------|---------------------------------|
2|-------3---------------3---------|-------3---------------3---------|
3|---------0-----0---------0-----0-|---------0-----0-----2---2-----2-|
4|-------------0---------------0---|-----2-------2---0-----------0---|
5|-----2---------------2-----------|-3-------------------------------|
6|-3---------------3---------------|---------------------------------|
   1   +   2   +   3   +   4   +     1   +   2   +   3   +   4   +

   G				     Cadd9	     Dsus4
1|---------------------------------|---------------------------------|
2|-------3---------------3---------|-------3---------------3---------|
3|---------0-----0---------0-----0-|---------0-----0-----2---2-----2-|
4|-------------0---------------0---|-----2-------2---0-----------0---|
5|-----2---------------2-----------|-3-------------------------------|
6|-3---------------3---------------|---------------------------------|
   1   +   2   +   3   +   4   +     1   +   2   +   3   +   4   +

-------
Verse 1
-------

   G				     Cadd9	     Dsus4
1|---------------------------------|---------------------------------|
2|-------3---------------3---------|-------3---------------3---------|
3|---------0-----0---------0-----0-|---------0-----0-----2---2-----2-|
4|-------------0---------------0---|-----2-------2---0-----------0---|
5|-----2---------------2-----------|-3-------------------------------|
6|-3---------------3---------------|---------------------------------|
   1   +   2   +   3   +   4   +     1   +   2   +   3   +   4   +

  Another turning point           a fork stuck in the road,

   G				     Cadd9	     Dsus4
1|---------------------------------|---------------------------------|
2|-------3---------------3---------|-------3---------------3---------|
3|---------0-----0---------0-----0-|---------0-----0-----2---2-----2-|
4|-------------0---------------0---|-----2-------2---0-----------0---|
5|-----2---------------2-----------|-3-------------------------------|
6|-3---------------3---------------|---------------------------------|
   1   +   2   +   3   +   4   +     1   +   2   +   3   +   4   +

  Time grabs you by the wrist     directs you where to go,

   Em7		   Dsus4	     Cadd9	     G
1|---------------------------------|---------------------------------|
2|-------3---------------3---------|-------3---------------3---------|
3|---------0-----0-----2---2-----2-|---------0-----0---------0-----0-|
4|-------------0---0-----------0---|-----2-------2---------------0---|
5|-----2---------------------------|-3-------------------2-----------|
6|-0-------------------------------|-----------------3---------------|
   1   +   2   +   3   +   4   +     1   +   2   +   3   +   4   +

  So make the best of this          test and don't ask why,

   Em7		   Dsus4	     Cadd9	     G
1|---------------------------------|---------------------------------|
2|-------3---------------3---------|-------3---------------3---------|
3|---------0-----0-----2---2-----2-|---------0-----0---------0-----0-|
4|-------------0---0-----------0---|-----2-------2---------------0---|
5|-----2---------------------------|-3-------------------2-----------|
6|-0-------------------------------|-----------------3---------------|
   1   +   2   +   3   +   4   +     1   +   2   +   3   +   4   +

  It's not a question but a         lesson learned in time.

------
Chorus
------

   Em7             G                 Em7             G
1|---------------------------------|---------------------------------|
2|-------3---------------3---------|-------3---------------3---------|
3|---------0-----0---------0-----0-|---------0-----0---------0-----0-|
4|-------------0---------------0---|-------------0---------------0---|
5|-----2---------------2-----------|-----2---------------2-----------|
6|-0---------------3---------------|-0---------------3---------------|
   1   +   2   +   3   +   4   +     1   +   2   +   3   +   4   +

  It's something unpredicatble   but in the end it's right          I

   Em7             Dsus4
1|---------------------------------|
2|-------3---------------3---------|
3|---------0-----0-----2---2-----2-|
4|-------------0---0-----------0---|
5|-----2---------------------------|
6|-0-------------------------------|
   1   +   2   +   3   +   4   +

  hope you had the time of your....

----
Link
----

   G				     Cadd9	     Dsus4
1|---------------------------------|---------------------------------|
2|-------3---------------3---------|-------3---------------3---------|
3|---------0-----0---------0-----0-|---------0-----0-----2---2-----2-|
4|-------------0---------------0---|-----2-------2---0-----------0---|
5|-----2---------------2-----------|-3-------------------------------|
6|-3---------------3---------------|---------------------------------|
   1   +   2   +   3   +   4   +     1   +   2   +   3   +   4   +

  life.

-------
Verse 2
-------

So take the photographs and still frames in your mind,
Hang them on a shelf in good health and good time,
Tattoos of memories and dead skin on trial,
For what it�s worth it was worth all the while.

------
Chorus
------

---------------------
Instrumental as Verse
---------------------

------
Chorus
------

David Thompson (bring_it_on53@hotmail.com)
Get this song at:
bol.com
amazon.com

Copyrights:

Author: ?

Composer: ?

Publisher: ?

Details:

Language: English

Share your thoughts

This form is protected by reCAPTCHA and the Google Privacy Policy and Terms of Service apply.

2 Comments found

Ganey

Monday 14th of August 2006 08:14

Perfect Tab 😛 i can alreday play it cos i lernt it years back but i was looking to see if anyone has finally tabbed it right, well done 😁

illtest

Friday 18th of July 2003 08:22

On my acoustic, it sounds better in the beginning using the second fret instead of the 3rd. on the intro. Great job otherwise! Eric