Grandaddy

Grandaddy - The Crystal Lake guitar tab

Your rating:
�The Crystal Lake� by Grandaddy on The Sophtware Slump

Tabbed by Dylan (sciolism@soccer.com)

Chords:
   C  C5    Dm   Fm1  Fm2  F#-5 G  G5   G#5 Am  Bb5
E  0   X     5    1   8     X   3   X    X   0   X
B  1   X     6    1   9     X   3   X    X   1   X
G  0   5     7    1   10    X   4  12    X   2   X
D  2   5     7    3   10    4   5  12    6   2   8
A  3   3     5    3   8     3   5  10    6   0   8
E  X   X     X    1   X     2   3   X    4   X   6


Intro/main riff:
   C                    Fm1	       Am                   Fm1
E|-----------------------------------------|---------------------------
B|-----------------------------------------|---------------------------
G|----5-4---5-4----4-5----5-4---5-4----4-5-|----5-4---5-4----4-5----5-4
D|-2------2------2------3-----3------3-----|-2------2------2------3----
A|-----------------------------------------|---------------------------
E|-----------------------------------------|---------------------------

--------------|
--------------|
---5-4----4-5-|
-3------3-----|
--------------|
--------------|

Verse:

C5
Should never�ve left the crystal lake
F#-5
The party�s full of folks who flake
Dm
Italian leather winter games
Fm2				  G5
Retired by the duraflames
C5
The crystal lake it only laughs
F#-5
It knows you�re just a modern man
Dm
Shining like a chandelier
Fm2
Shining somewhere far away from here

Chorus:

Backup riff:
   Bb5						     G#5
E|---------------------------------------------------------------------
B|---------------------------------------------------------------------
G|---------------------------------------------------------------------
D|---------------------------------------------------------------------
A|-8-8-10-10-11-11-------8-8-10-10-11-11-------8-8-10-10-11-11-------8-
E|-----------------10-10-----------------10-10-----------------10-10---

-------------------------|
-------------------------|
-------------------------|
-------------------------|
-8-10-10-11-11-----------|
---------------10-10-----|
Bb5				G#5
			I gotta get out of here   X3
Bb5				G#5			  G  (backup riff continued until end of G chord)
			I gotta get out of here  and find my way again
G#5
I�ve lost my way again

Intro riff

Verse:
Should never�ve left the crystal lake
For areas where trees are fake
The dogs are dead with broken hearts
Collapsed by the coffee carts
The crystal lake it only laughs
It knows you�re just a modern man
Shining like a chandelier
Shining somewhere far away from here

Chorus

Outro:

C5			Fm1			C5			Fm1 X10

After two bars the solo comes in:

E|-----------------------------------|   |---------------------------
B|------------8-11-9-9-8-8-----------|   |------------8-11-9-9-8h9p8-
G|-9---9-9-10--------------10-10-9-9-|X6 |-9---9-9-10----------------
D|-----------------------------------|   |---------------------------
A|-----------------------------------|   |---------------------------
E|-----------------------------------|   |---------------------------

-------------------------------------------------------|
--------------------------8-11-9-9-8---8---------------|
-10h12p10-9h10p9---9-9-10----------------10---10-9---9-|
-------------------------------------------------------|
-------------------------------------------------------|
-------------------------------------------------------|

the end

if you have any questions, corrections, or comments e-mail me at sciolism@soccer.com
Get this song at:
bol.com
amazon.com

Copyrights:

Author: ?

Composer: ?

Publisher: V2 Records, Inc., V2 Music Ltd.

Details:

Released in: 2000

Language: English

Share your thoughts

This form is protected by reCAPTCHA and the Google Privacy Policy and Terms of Service apply.

0 Comments found