Fairweather

Fairweather - Soundtrack To The Ride bass tab

Your rating:
Artist	Fairweather
Song	Soundtrack to the Ride
Album	If They Move...Kill Them

Dropped D

tabbed by TheBigLebowski (rusalbeldino@yahoo.com)

Intro			 2x
G|-----------------------------------------|----------------------
D|-----------------------------------------|----------------------
A|-----------------------------------------|--------10101010------
D|-5-5555-5555-5555-55-0-0000-0000-0000-00-|-55-5-5/---------0000-
Cont.	2x	Then:
G|----------------|--------------------|
D|----------------|--------------------|
A|----------------|--------------------|
D|-0000-0000-0000-|-5-5-7--7-0~--7-5~--|

1st Verse			2x
G|---------------------------------|
D|---------------------------------|
A|-----------------2222-22---------|
D|-7777-77-5555-55---------5555-55-|

2nd Verse			2x
G|---------------------------------|
D|---------------------------------|
A|-----------------9999-99---------|
D|-7777-77-5555-55---------5555-55-|

Chorus
G|-------------------------|-------------------------|\
D|-------------------------|-------------------------| \x2
A|-22----------------------|-22/55-55-5555-----------| /
D|----77-77-7777-5555-5555-|---------------5555-5555-|/

1st Verse	2x
2nd Verse	1x
Followed by:
G|-------------------------|
D|-------------------------|
A|-----------------22-22-2-|
D|-7777-77-5555-55---------|

Chorus	2x

Bridge		2x
G|--------------------------------|
D|--------------------------------|
A|------------3333-3333-3333-3333-|
D|-0--0--0--0---------------------|

Chorus	2x|------|
	  |------|
	  |--5~--|
	  |------|

Please rate this tab. Thanks
Get this song at:
bol.com
amazon.com

Copyrights:

Author: ?

Composer: ?

Publisher: Equal Vision Records

Details:

Released in: 2001

Language: English

Appearing on: If They Move...Kill Them (2001)

Share your thoughts

This form is protected by reCAPTCHA and the Google Privacy Policy and Terms of Service apply.

0 Comments found