Factory 81

Factory 81 - Peace Officer bass tab

Your rating:
Band: Factory 81      **for the guitar tabs, do a search on the person hhead**
Song: Peace Officer
Tuning: A,C,G,C,F
Tabber: -=m0SH=-
E-Mail: m0SH@hotmail.com
============================================================================================
 -=intro=- 2X
F|-----------------------------------------------------------------------------------------|
C|-----------------------------------------------------------------------------------------|
G|------------------------------11-11--------------------------------6-5-6-----------------|
C|--0-0-0-0--(p)--0-0-0-0-0--10-------------0-0-0-0--(p)--0-0-0-0-0------------------------|
A|-----------------------------------------------------------------------------------------|

 -=riff 1=- *guitar comes in* 2X
F|-----------------------------------------------------------------------------------------|
C|-----------------------------------------------------------------------------------------|
G|-----------------------------------------------------------------------------------------|
C|--0-0-0-8---0-0-0-8--------0-0-0-8---0-0-0-8---------------------------------------------|
A|-----------------------------------------------------------------------------------------|

 -=riff 2=- 4X                        -=riff 3=- 1X
F|-----------------------------------|-----------------------------------------------------|
C|-----------------------------------|-----------------------------------------------------|
G|-------------------------11-11-----|-----------------------------------------------------|
C|----------------------10-----------|-----------------------------------------------------|
A|--3--3----3--3--3--3---------------|--(0)--------(0)--------(0)---------(0)--------------|

 -=riff 4=- 2X
F|-----------------------------------------------------------------------------------------|
C|-----------------------------------------------------------------------------------------|
G|------------------------------11-11--------------------------------6-5-6-----------------|
C|--0-0-0-0--(p)--0-0-0-0-0--10-------------0-0-0-0--(p)--0-0-0-0-0------------------------|
A|-----------------------------------------------------------------------------------------|

 -=riff 5=-
Get this song at:
bol.com
amazon.com

Copyrights:

Author: ?

Composer: ?

Publisher: Medea Records

Details:

Released in: 1999

Language: English

Share your thoughts

This form is protected by reCAPTCHA and the Google Privacy Policy and Terms of Service apply.

0 Comments found