Exodus

Exodus - Fabulous Disaster guitar tab

Your rating:

EXODUS - FABULOUS DISASTER

(Fabulous Disaster, 1989)

Key

= after note = vibrato

^ after note = heavy vibrato

\ = slide down

/ = slide up

+ = tap

h = hammer

p = pull

n = natural harmonic

s = pinching harmonic (squeal)

* = tremolo pick

t = trill

b = bend

|-3-| = triplet

n number above the tab = play the first part then the first finishing part

play the first part a second time and then play the second finishing part

etc.

Riff 1

E -------------------------------------------------------------------------------------------

B -------------------------------------------------------------------------------------------

G -------------------------------------------------------------------------------------------

D -------------------------------------------------------------------------------------------

A -------------------------------------------------------------------------------------------

E -2---2---5---4-------0--2---2---5---4---2--0--2---2---5---4-------0--2---2---5---4---2--0--

E -------------------------------------------------------------------------------------------

B -------------------------------------------------------------------------------------------

G -------------------------------------------------------------------------------------------

D -------------------------------------------------------------------------------------------

A -------------------------------------------------------------------------------------------

E -2---2---5---4-------0--2---2---5---4---2--0--2---2---5---4-------0--2---2---5---4---2--0--

Riff 1A

E ------------------------------------------------------------------------------------------------------

B ------------------------------------------------------------------------------------------------------

G ----------------------------------5--------------------------------7----------------------------------

D -4--------------------------------5--------------------------------7----------------7--------------5--

A -4--------------------------------3--------------------------------5----------------7--------------5--

E -2----------------------------------------------------------------------------------5--------------3--

E ----------------------------------

B ----------------------------------

G ----------------------------------

D -4--------------------------------

A -4--------------------------------

E -2--------------------------------

Riff 1B

E -------------------------------------------------------------------------------------------

B -------------------------------------------------------------------------------------------

G -------------------------------------------------------------------------------------------

D -------------------------------------------------------------------------------------------

A -------------------------------------------------------------------------------------------

E -2---2---5---4-------0--2---2---5---4---0--1--2---2---5---4-------0--2---2---5---4---0--1--

E -------------------------------------

B -------------------------------------

G -7-----------------------------------

D -7-----------------7--------5--------

A -5-----------------7--------5--------

E -------------------5--------3--------

Riff 1C

E ------------------------------------------------------------------------------------------------------

B ------------------------------------------------------------------------------------------------------

G ----------------------------------5--------------------------------7----------------------------------

D -4--------------------------------5--------------------------------7----------------7--------5--------

A -4--------------------------------3--------------------------------5----------------7--------5--------

E -2----------------------------------------------------------------------------------5--------3--------

Riff 2

E ------------------------------------

B ------------------------------------

G ------------------------------------

D ------------------------------------

A ------------4---3---2-------6-----6-

E -2-22-22-22---2---2---2-4-5---4-5---

Riff 2A

E ------------------------

B ------------------------

G ------------------------

D -4----------4-5-8-4-5-7-

A -4----------------------

E -2----------------------

Riff 2B

E -----------------------------------

B -----------------------------------

G ------------6--5--4----------------

D ------------6--5--4----------------

A ------------4--3--2----------------

E -2-22-22-22------------------------

Riff 2C

E -----------------------------

B -----------------------------

G ------6--5--4----------------

D ------6--5--4----------------

A ------4--3--2----------------

E -2---------------------------

Riff 2D

E ----------------------------------

B ----------------------------------

G --------------------7--6-4-6-4----

D -------------------------------7--

A ------------4---3-----------------

E -2-22-22-22---2---2---------------

Riff 2E

E ----------------------------------

B ----------------------------------

G ----------------------------------

D ----------------------------1--3--

A ------------4---3-------6---1--3--

E -2-22-22-22---2---2-4-5---0-------

Riff 3

E ----------------------------------------------------------------

B ----------------------------------------------------------------

G ----------------------------------------------------------------

D -4----------4--4----------4--4----------4--4--------------------

A -4------6-0-4--4------6-0-4--4------6-0-4--4--------------------

E -2--4-5-----2--2--4-5-----2--2--4-5-----2--2--22-22-22-22-22-22-

Riff 3A

E -----------------------------------------------------

B -----------------------------------------------------

G -----------------------------------------------------

D -4----------4--4----------4--4----------4--4---------

A -4------6-0-4--4------6-0-4--4------6-0-4--4---------

E -2--4-5-----2--2--4-5-----2--2--4-5-----2--2---------

Riff 3B

E ----------------------------------------------------------

B ----------------------------------------------------------

G ----------------------------------------------------------

D -4----------4--4----------4--4----------4--4--4-4-4-4-4-4-

A -4------6-0-4--4------6-0-4--4------6-0-4--4--4-4-4-4-4-4-

E -2--4-5-----2--2--4-5-----2--2--4-5-----2--2--2-2-2-2-2-2-

Riff 3A

E ---------------------------------------------------------

B ---------------------------------------------------------

G ---------------------------------------------------------

D -4----------4--4----------4--4----------2----------------

A -4------6-0-4--4------6-0-4--4------6-0-2----------------

E -2--4-5-----2--2--4-5-----2--2--4-5-----0----------------

Riff 4

E --------------------------------------------------------------------------------------------------------------------

B --------------------------------------------------------------------------------------------------------------------

G -2--2------------------------5--5------------------------7--7-------------------------------------------------------

D -2--2----------4--4----------5--5----------4--4----------7--7----------2--2----------4------------------------------

A -0--0----------4--4----------3--3----------4--4----------5--5----------2--2----------4------------------------------

E -------2-2-2-0-2--2--2-2-2-0-------2-2-2-0-2--2--2-2-2-0-------2-2-2-0-0--0--2-2-2-0-2--2-2-2-2-2-2-2-2-2-2-2-2-2-2-

Riff 4A

E -------------------------------------------------------------------------------------------

B -------------------------------------------------------------------------------------------

G -2--2------------------------5--5------------------------7---------------------------------

D -2--2----------4--4----------5--5----------4--4----------7----------------2----------------

A -0--0----------4--4----------3--3----------4--4----------5----------------2----------------

E -------2-2-2-0-2--2--2-2-2-0-------2-2-2-0-2--2--2-2-2-0------------------0----------------

Order

Riff 1/1A x 3

Riff 1B/1C x 1

Riff 2/2A x 3

Riff 2B/2C x 1

Riff 2 x 4

Riff 3 x 3

Riff 3A x 1

Riff 3 x 3

Riff 3B x 1

Riff 4 x 3

Riff 4A x 1

Riff 2/2A x 3

Riff 2B/2C x 1

Solo over Riff 2 x 3

Solo over Riff 2D x 1

Solo over Riff 2 x 3

Solo over Riff 2E x 1

Solo over Riff 2 x 3

Solo over Riff 2E x 1

Riff 1/1A x 3

Riff 1B/1C x 1

Riff 3 x 3

Riff 3A x 1

Riff 3 x 3

Riff 3B x 1

Riff 4 x 3

Riff 4A x 1

Riff 3A x 1

Tabbed by Radiohater 2003

Get this song at:
bol.com
amazon.com

Copyrights:

Author: ?

Composer: ?

Publisher: ?

Details:

Language: English

Appearing on: Fabulous Disaster (1989)

Share your thoughts

This form is protected by reCAPTCHA and the Google Privacy Policy and Terms of Service apply.

0 Comments found