D-A-D

D-A-D - Black Crickets guitar tab

Your rating:
D.A.D - Black Crickets




GUITAR #1


E|----------------------------------------------------------------------
b|----------------------------------------------------------------------
g|----------------------------------------------------------------------
d|----------------------------------------------------------------------
a|--------5-3--5p3----------------5-3--5p3--------------5-3--5p3--------
e|5b6r5-3----------6-3----5b6r5-3----------6----5b6r5-3----------6-3----



  --------------------------------|
  --------------------------------|
  --------------------------------|
  --------------------------------|
  -5---6-5-3----------------------|
  ---------------6-5-6---5-6-3----|



GUITAR #2


CHORDS:


Gm C | Gm C | Gm C | Gm C |
Gm C | Gm C | Bb | F | Gm C | C |


Gm= E|3|�  C= E|3|   Bb= E|1|   F= E|1|
    b|3|�     b|5|       b|3|      b|1|
    g|3|      g|5|       g|3|      g|2|
    d|5|      d|5|       d|3|      d|3|
    a|5|      a|3|       a|1|      a|3|
    e|3|      e|0|�      e|0|�     e|1|


BASS


G C | G C | G C | G C |

G C | G C | Bb | F | G C | C |


G= e|3|   C= a|3|   Bb= a|1|   F= e|1|





GUITAR #1 / #2


[Play only on g, b, and E string]


Bb F | Gm C | Bb F | Gm |*4


BASS


Bb F | G C | Bb F | Gm |*4


TAB:


g|---------------------------------------------|
d|---------------------------------------------|
a|1--1-----------3--3-1--1---------------------|
e|-----1--1-3--3-----------0--0-3-3-3-3-3-3-3-3|*4





GUITAR #1


E|-----------------------------------------3----------------3------|
b|3---5--3---3-5---3---5--3---3-5---3---5----3---5---3---5----3---5|
g|--3-5----3---5-----3-5----3---5-----3-5------3-5-----3-5------3-5|
d|-----------------------------------------------------------------|
a|-----------------------------------------------------------------|
e|-----------------------------------------------------------------|


[THE BASS AND GUITAR #2 PLAYS ALMOST THE SAME THING AS IN INTRO]



GUITAR #1


E|--------------------------------------------------------|
b|--------------------------------------------------------|
g|--------------------------------------------------------|
d|--------------------0-----------------------------------|
a|---------0-1-0--------3b5~------0-1---1h3---------------|
e|1--------------3--------------3-----------1----3--------|


GUITAR #2


F | F | Gm | Gm | Bb | F | Gm |


BASS


F | F | G | G | Bb | F | G | G |


TAB:

g|------------------------------------------------------------------------------|
d|------------------------------------------------------------------------------|
a|--------------------------------1--1-1----------------------------------------|
e|1--1-1--1--1-1--3--3-3--3--3-3----------1--1-1--3--3-3-3-3-3-3-3-3-3-3-3-3-3-3|

Now you should be able to figure the rest out yourself.

Enjoy!
Get this song at:
bol.com
amazon.com

Copyrights:

Author: ?

Composer: ?

Publisher: EMI Medley

Details:

Released in: 1987

Language: English

Share your thoughts

This form is protected by reCAPTCHA and the Google Privacy Policy and Terms of Service apply.

0 Comments found