Cannibal Corpse

Cannibal Corpse - Sentenced To Burn guitar tab

Your rating:
Band: Cannibal Corpse
Song: Sentenced To Burn
Tabbed by: \JEB/,

Riff A  (Both Gtrs)
Db|----------------|
Ab|----------------|
Db|3210321032103210|
P.M................

Play Riff A 2x

Riff B  (LeftGtr plays Riff A while RightGtr plays this)
Db|0--3--6--6--3--0h|3--3--6--0--3--3p|
Ab|0--3--6--6--3--0h|3--3--6--0--3--3p|
Db|0--3--6--6--3--0h|3--3--6--0--3--3p|

Play Riff B 4x

Riff C  (LeftGtr plays Riff A while RightGtr plays this)
Db|----------------|
Ab|----------------|
Db|6306306305204030|
P.M................

Play Riff C 4x,
Play Riff B 4x
Play Riff C 4x
Play Riff A 4x
Play Riff B 4x
Play Riff C 4x
Play Riff A 6x, flanged on first 2x, with fill last 2x,
  and lyrics on last 4x:


Fill (played 2x by RightGtr)
Db|3p2---3p2---3p2---3p2---|
Ab|---5p2---5p2---5p2---5p2|
Db|------------------------|

Riff D1  (played by RightGtr while LeftGtr plays Riff A)
Db|----------|----------------|
Ab|---5------------|---5------------|
Db|9-----------0---|9--------6"-0"--|
P.M            .

Play Riff D1 2x

Riff D2  (played by a 3rd Gtr, with Riff D1 and Riff A)
Db|----3-----|---3------------|
Ab|5---------------|5--------2"-----|
Db|------------0---|------------3"--|
P.M            .

Play Riff D2 2x

Riff E1  (Both Gtrs)
Db|----------------|
Ab|2"----2"--5"--5"|
Db|----3"------3"--|

Play Riff E1 4x

Riff E2  (RightGtr plays this, LeftGtr plays E1)
Db|----------------|
Ab|5"----5"--8"--8"|
Db|----6"------6"--|

Play Riff E2 4x

Play Riff B 4x while RightGtr solos (3 Gtrs needed again)
Play Riff A 4x

End on:
Db|0----|
Ab|0----|
Db|0----|
Get this song at:
bol.com
amazon.com

Copyrights:

Author: Alex Webster

Composer: Alex Webster

Publisher: Metal Blade Records Inc.

Details:

Released in: 2013

Language: English

Appearing on: Gallery of Suicide (1998)

Share your thoughts

This form is protected by reCAPTCHA and the Google Privacy Policy and Terms of Service apply.

0 Comments found