Cacophony

Cacophony - Speed Metal Symphony guitar tab

Your rating:
SPEED METAL SYMPHONY
                            As recorded by Cacophony
                   (From the 1987 Album SPEED METAL SYMPHONY)

Music by Marty Friedman and Jason Becker
Tab restructered by Jay Ruetschi using Power Tab Editor
well this tab's going to take you a long time to learn, but trust me, it is worth it, this song will teach you a lot about the neo-classical work. Well have fun with it.

          A5                   E5                   G5                   D5
      x 0 2 x x x          0 2 2 x x x          3 x 0 0 x x          x x 0 2 x x

          F5
      1 3 3 x x x

  Tempo I Q=140
  Am
 4/4
  Gtr I
  <
|---------------5-----||-----------5---------------5-----|
|---------5---5---5---||-----5---5---5-------5---5---5---|
|-------5---5-------5-||---5---5-------5---5---5-------5-|
|-----7---------------||-7---------------7---------------|
|---------------------||---------------------------------|
|---------------------||---------------------------------|
|
| Gtr II
|                        <               <
|---------------------||---------------------------------|
|---------------------||---------------------------------|
|---------------------||---------------------------------|
|---------------------||-2---------------3---------------|
|---------------------||---------------------------------|
|---------------------||---------------------------------|


|-----------5---------------5-----|
|-----5---5---5-------5---5---5---|
|---5---5-------5---5---5-------5-|
|-7---------------7---------------|
|---------------------------------|
|---------------------------------|
|
| <               <
|---------------------------------|
|---------------------------------|
|---------------------------------|
|-----------------2---------------|
|-5-------------------------------|
|---------------------------------|


|-----------5---------------5-----|
|-----5---5---5-------5---5---5---|
|---5---5-------5---5---5-------5-|
|-7---------------7---------------|
|---------------------------------|
|---------------------------------|
|
| <               <
|---------------------------------|
|---------------------------------|
|---------------------------------|
|---------------------------------|
|-3---------------5---------------|
|---------------------------------|


|-----------5---------------5-----|-----------5---------------5-----|
|-----5---5---5-------5---5---5---|-----5---5---5-------5---5---5---|
|---5---5-------5---5---5-------5-|---5---5-------5---5---5-------5-|
|-7---------------7---------------|-7---------------7---------------|
|---------------------------------|---------------------------------|
|---------------------------------|---------------------------------|
|
| <               <                 <               <
|---------------------------------|---------------------------------|
|---------------------------------|---------------------------------|
|---------------------------------|---------------------------------|
|---------------------------------|---------------------------------|
|-2---------------3---------------|-3---------------5---------------|
|---------------------------------|---------------------------------|


    Gtr I
|-----------5---------------5-----|-----------5---------------5-----|
|-----5---5---5-------5---5---5---|-----5---5---5-------5---5---5---|
|---5---5-------5---5---5-------5-|---5---5-------5---5---5-------5-|
|-7---------------7---------------|-7---------------7---------------|
|---------------------------------|---------------------------------|
|---------------------------------|---------------------------------|
|
|   Gtr II
| <               <                 <               <
|---------------------------------|---------------------------------|
|---------------------------------|---------------------------------|
|---------------------------------|---------------------------------|
|---------------------------------|---------------------------------|
|-2---------------3---------------|---------------------------------|
|---------------------------------|-5---------------5---------------|


|-----------5---------------5-----||
|-----5---5---5-------5---5---5---||
|---5---5-------5---5---5-------5-||
|-7---------------7---------------||
|---------------------------------||
|---------------------------------||
|
| <               <
|---------------------------------||
|---------------------------------||
|---------------------------------||
|---------------------------------||
|---------------------------------||
|-4---------------5---------------||


            Fsus4            F               Am
 2/4       6/4
            Gtr I
|-------||-----------------|---------------|---------------|
|-------||o----------------|---------------|---------------|
|-------||-----------------|---------------|---------------|
|-------||--10-------------|---------------|-2-------------|
|-x\----||o--8-------------|-2-------------|-0-------------|
|-------||-----------------|-0-------------|---------------|
|
|           Gtr II
|-------||-----------------|---------------|---------------|
|-------||o----------------|---------------|---------------|
|-------||--------3--------|------4--------|------2--------|
|-------||--------3--------|------2--------|------2--------|
|-------||o----------------|---------------|---------------|
|-5-----||-----------------|---------------|---------------|


 1.
 4/4
  PM------------------------------------|
|--------------------|------------------------||
|--------------------|-----------------------o||
|-------------7-7----|----10-9-7--------------||
|-7-10-10-9-9-----10-|-10--------9-10-8-7-----||
|--------------------|-----------------------o||
|--------------------|------------------------||
|
| PM------------------------------------|
|--------------------|------------------------||
|--------------------|-----------------------o||
|--------------------|------------------------||
|--------------------|-----3-2----------------||
|----3--3-2-2-5-5--3-|--3------5-2--3-1------o||
|-5------------------|------------------5-----||


  2.
 4/4
|-----------5---------------5-8h12-8------|
|---------5---5-------5---5----------10---|
|-------5-------5-------5---------------9-|
|-----7-----------7-----------------------|
|---7---------------7---------------------|
|-8---------------------------------------|
|
|-----------------------------------------|
|-----------------------------------------|
|-2---------------------------------------|
|-2---------------------------------------|
|-----------------------------------------|
|-----------------------------------------|


                                                                            Am
                                                    ~~~~~~~~~~
|------------8-12h17-12-----------------------8-12S20--|-(20)--------|-(20)---------||
|---------10------------13-----------------10----------|-------------|--------------||
|-------9------------------12-9----------9-------------|-------------|--------------||
|----10-------------------------10----10---------------|-------------|--------------||
|-12-------------------------------12------------------|-------------|------------8-||
|------------------------------------------------------|-------------|--------------||
|
| Gtr II
|------------------------------------------------------|-------------|--------------||
|------------------------------------------------------|-------------|--------------||
|--2---------------------------------------------------|--(2)--------|--(2)---------||
|--2---------------------------------------------------|--(2)--------|--(2)---------||
|------------------------------------------------------|-------------|--------------||
|------------------------------------------------------|-------------|------------5-||


  F                   Bb                  E
 4/4                                     5/4
|-------------------|----6--(6)-5-3-----|----4--(4)-5-7----8-5--|
|----6--(6)-5-------|---------------6-3-|-5-------------5-------|
|-------------7-5-4-|-------------------|-----------------------|
|-7-----------------|-3-----------------|-----------------------|
|-------------------|-------------------|-----------------------|
|-------------------|-------------------|-----------------------|
|
|-------------------|-------------------|-----------------------|
|-------------------|-------------------|-----------------------|
|-------------------|-------------------|-----------------------|
|-------------------|----8--(8)-7-5-----|----6--(6)-7-9---10-7--|
|-7--8--(8)-7-5-----|---------------8-5-|-7-------------7-------|
|---------------8-7-|-6-----------------|-----------------------|


  Am
|----17p12----------------12----------17p12---------------|
|-13-------13p12----12h13----13p12-13-------13p12-----13--|
|----------------14-------------------------------14------|
|---------------------------------------------------------|
|---------------------------------------------------------|
|---------------------------------------------------------|
|
|-----5--------------------------------5------------------|
|--------5-----------------5--------------5---------------|
|--5--------5--4-----4--5-----5--4--5--------5--4------5--|
|-----------------7--------------------------------7------|
|---------------------------------------------------------|
|---------------------------------------------------------|


  Am
 3/4
|----17p12----------------12----------17p12--------|
|-13-------13p12----12h13----13p12-13-------13p12--|
|----------------14--------------------------------|
|--------------------------------------------------|
|--------------------------------------------------|
|--------------------------------------------------|
|
|-----5--------------------------------5-----------|
|--------5-----------------5--------------5--------|
|--5--------5--4-----4--5-----5--4--5--------5--4--|
|-----------------7--------------------------------|
|--------------------------------------------------|
|--------------------------------------------------|


  F                       Bb
 4/4
|-----------------------|----10--(10)-8---------|
|-----10--(10)-8--------|---------------11-10-8-|
|-14-------------10-9-8-|-7---------------------|
|-----------------------|-----------------------|
|-----------------------|-----------------------|
|-----------------------|-----------------------|
|
|-----------------------|-----6---(6)-5--3------|
|------6---(6)-5--3-----|-------------------6-3-|
|-------------------5-4-|-3---------------------|
|--7--------------------|-----------------------|
|-----------------------|-----------------------|
|-----------------------|-----------------------|


  E                       Am
|-------------8-10---10-|-8----------8p7p5-||
|-9--12--(12)------9----|------------------||
|-----------------------|------------------||
|-----------------------|------------------||
|-----------------------|------------------||
|-----------------------|------------------||
|
|-----4---(4)-5--7----8-|-5tr8-------------||
|-5----------------5----|------------------||
|-----------------------|------------------||
|-----------------------|------------------||
|-----------------------|------------------||
|-----------------------|------------------||


  G
                                                                                ~~
|-------------10p8p==7-------------12p10p==8-|------8s10-13p12p==10-------------------------10p8p==7-|
|-8--------------------8---------------------|-10-------------------13p12p==10-----------------------|
|--------------------------------------------|---------------------------------12--------------------|
|--------------------------------------------|-------------------------------------------------------|
|--------------------------------------------|-------------------------------------------------------|
|--------------------------------------------|-------------------------------------------------------|
|
|--------------------------------------------|-------------------------------------------------------|
|--------------------------------------------|-------------------------------------------------------|
|-5-0-0-0-0-0--7---5---7-0-0-0-0-0--9----7---|--9-0-7--9-10----9-----7----------0-0-0-0-0-0--7---5---|
|--------------------------------------------|----------------------------9--------------------------|
|--------------------------------------------|-------------------------------------------------------|
|--------------------------------------------|-------------------------------------------------------|


|-------------12p10p==8-------------------------|
|-8---------------------8-----------10h12h==13--|
|-----------------------------------------------|
|-----------------------------------------------|
|-----------------------------------------------|
|-----------------------------------------------|
|
|-----------------------------------------------|
|-----------------------------------------------|
|-7-0-0-0-0-0--9----7---9-0-0-0-0-0-10----9-----|
|-----------------------------------------------|
|-----------------------------------------------|
|-----------------------------------------------|


  G                                            C
                                                ~~
|-10h13p===10-------------------------------------------------|
|-------------13p12p==10--------------------------------------|
|------------------------12p10p===9---------------------------|
|-----------------------------------12p10p===9-10-------------|
|-------------------------------------------------------------|
|-------------------------------------------------------------|
|
|-------------------------------------------------------------|
|-------------------------------------------------------------|
|-10h===12p===10p===9-----------------------------------------|
|------------------------12----10----9----12---10-------------|
|-------------------------------------------------10-7-10-----|
|---------------------------------------------------------8-7-|


  Am                                                     E
|-16h17p==16p12h13p==12-16h17p==16p12h13p==12-16h17p==16p12h13p==12-15h17p==16h19h20p==19----|
|--------------------------------------------------------------------------------------------|
|--------------------------------------------------------------------------------------------|
|--------------------------------------------------------------------------------------------|
|--------------------------------------------------------------------------------------------|
|--------------------------------------------------------------------------------------------|
|
|--------------------------------------------------------------------------------------------|
|--------------------------------------------------------------------------------------------|
|--------------------------------------------------------------------------------------------|
|-----------------------------------6----7-----6---------------------------------------------|
|------------------5-----7----8---------------------8-----7----5-----7----5------------------|
|--5----7-----8-----------------------------------------------------------------8----7-------|


     Am                                       E
                                                                     ~~
|-16h17p==16-12h13p==12-------------------------------------------------------|
|-----------------------18p17p==15---15----13-15p13p==12-13p12----------------|
|----------------------------------------------------------------14-13--------|
|-----------------------------------------------------------------------------|
|-----------------------------------------------------------------------------|
|-----------------------------------------------------------------------------|
|
|-----------------------------------------------------------------------------|
|-----------------------------------------------------------------------------|
|-----------------------------------------------------------------------------|
|------------------7----10----9----7----10-----9----7-------------------------|
|-------------7------------------------------------------10----8-----7--------|
|--5----8--------------------------------------------------------------10-7-8-|


     Am                   E
|------------8-12-8----13-10-------------------|
|---------10--------10-------12-9--------------|
|-------9-------------------------10-----------|
|----10------------------------------12-9------|
|-12--------------------------------------11---|
|----------------------------------------------|
|
|-----------------7-----4----------------------|
|--------------------------6--3----------------|
|------------5------------------4-----4-7--4---|
|----------------------------------6-----------|
|-------7--------------------------------------|
|--5--8----------------------------------------|


  Am                   E
|------------8-12-8----13-10----------------10-16-13-----------|
|---------10--------10----------12----12---------------15-12---|
|-------9--------------------------13--------------------------|
|----10--------------------------------------------------------|
|-12-----------------------------------------------------------|
|--------------------------------------------------------------|
|
|------------5-12-8-----7--------------------------------------|
|----------5--------10-------10-----9--------------------------|
|--5----5--------------------------------10-----9----7---------|
|-----7---------------------------------------------------10-9-|
|--------------------------------------------------------------|
|--------------------------------------------------------------|


  Dm                      G
|-13-15-17-15-13-------------------------12-13-15-|
|----------------15----15-------12-13-15----------|
|-------------------14----12-14-------------------|
|-------------------------------------------------|
|-------------------------------------------------|
|-------------------------------------------------|
|
|-------------------------------------------------|
|-------------------10----------------------------|
|-10-----------7-----------------------------7----|
|--------------------------------------9----------|
|-------------------------10----------------------|
|-------------------------------------------------|


  C                       Am
|-------12----------------------------------12-13-|
|-13-15----15-13-------------------12-13-15-------|
|----------------14-12-14----12-14----------------|
|-------------------------15----------------------|
|-------------------------------------------------|
|-------------------------------------------------|
|
|-------------------------------------------------|
|-------------------------------------------------|
|--------9----------------------------------10----|
|-------------10-----------7----------10----------|
|-------------------10----------------------------|
|-------------------------------------------------|


  F                       Dm                        G                       C
|----12-13-12----13-12-13-13-15-17-15-13-17-15-17-|-12-13-15-13-12-------------12-15-12-------||
|-15----------15----------------------------------|----------------15-13-12-13----------13----||
|-------------------------------------------------|-------------------------------------------||
|-------------------------------------------------|-------------------------------------------||
|-------------------------------------------------|-------------------------------------------||
|-------------------------------------------------|-------------------------------------------||
|
|-------------------------------------------------|--------8-----------------------8----------||
|-------------------------------------------------|--8-10----10--8--------------8-----8-------||
|--7----------------------------------------------|----------------10--9--7--9-----------9----||
|--------------7----------------10----------------|-------------------------------------------||
|--------------------8-------10-------10-----7----|-------------------------------------------||
|-------------------------------------------------|-------------------------------------------||


  C                                Am
|-------------------------------------------10-12-13-13-12-10----------|
|----------------------------------10-12-13-------------------13-12-10-|
|--------------------------9-10-12-------------------------------------|
|------------------9-10-12---------------------------------------------|
|----------8-10-12-----------------------------------------------------|
|--8-10-12-------------------------------------------------------------|
|
|----------------------------------------------------------------------|
|----------------------------------------------------------------------|
|----------------------------------------------------------------------|
|-10--------------------------------7----------------------------------|
|----------------------------------------------------------------------|
|--8--------------------------------5----------------------------------|


    G/B                         G
|-------------------------------------8-10-12-12-10-8----------|
|-----------------------------8-10-12-----------------12-10-8--|
|----------------------7-9-10----------------------------------|
|---------------7-9-10-----------------------------------------|
|--------7-8-10------------------------------------------------|
|-7-8-10-------------------------------------------------------|
|
|--------------------------------------------------------------|
|--------------------------------------------------------------|
|--------------------------------------------------------------|
|-9---------------------------5--------------------------------|
|--------------------------------------------------------------|
|-7---------------------------3--------------------------------|


  Am                      F
|--------------------------------7-8-10-10-8-7--------|
|-------------------------6-8-10---------------10-8-6-|
|-------------------5-7-9-----------------------------|
|-------------5-7-9-----------------------------------|
|-------5-7-8-----------------------------------------|
|-5-7-8-----------------------------------------------|
|
|-----------------------------------------------------|
|-----------------------------------------------------|
|-----------------------------------------------------|
|-7-----------------------3---------------------------|
|-----------------------------------------------------|
|-5-----------------------1---------------------------|


  Eb           D           C
|-9-7-6--------8-6-5-6-5---5-----------------------|
|-------11-9-7-----------6---6-8-6-5-6-5---5-------|
|----------------------------------------7---7-5---|
|--------------------------------------------------|
|--------------------------------------------------|
|--------------------------------------------------|
|
|--------------------------------------------------|
|--------------------------------------------------|
|-8------------7---------------5-------------------|
|-8------------7---------------5-------------------|
|-6------------5---------------3-------------------|
|--------------------------------------------------|


  C
|---------------------------------------------|
|---------------------------------8-----------|
|-7-5---5---------------6-7-6---6---6-7-6-5-6-|
|-----8---8-7-8-7-5-7-8-------8---------------|
|---------------------------------------------|
|---------------------------------------------|


 5/4
|-----------6--------------------10----------------------------|
|-5-6-5---5---6-5-5-6-9-10-9-9-9----9---------9-10----------10-|
|-------6-----------------------------10-9-10------10-10-10----|
|--------------------------------------------------------------|
|--------------------------------------------------------------|
|--------------------------------------------------------------|


  C
 4/4
  Gtr I
|-15-13-12-15-13-12----------------------------13---12----13---12----10-12-10--8-10--8----|
|-------------------15-13-12-15-13-15-13-12--------------------------------------------11-|
|-----------------------------------------------------------------------------------------|
|-----------------------------------------------------------------------------------------|
|-----------------------------------------------------------------------------------------|
|-----------------------------------------------------------------------------------------|
|
| Gtr II
|-12-10--8-10--8-----8----------------12----10----8----10----8-----------8----------------|
|----------------12----12-10-12-10--8-----------------------------12-------12-10-12-10--8-|
|-----------------------------------------------------------------------------------------|
|-----------------------------------------------------------------------------------------|
|-----------------------------------------------------------------------------------------|
|-----------------------------------------------------------------------------------------|


  G/B
|-13-12-10-12-10----10----------------13-12-10-12-10----10-----------------|
|----------------13----13-12-13-12-10----------------13----13-12-13--------|
|--------------------------------------------------------------------------|
|--------------------------------------------------------------------------|
|--------------------------------------------------------------------------|
|--------------------------------------------------------------------------|
|
|-10--8--7--8--7-----7----------------10--8--7--8--7-----7-----------------|
|----------------10----10--8-10--8--6----------------10----10--8-10-8-6----|
|--------------------------------------------------------------------------|
|--------------------------------------------------------------------------|
|--------------------------------------------------------------------------|
|--------------------------------------------------------------------------|


  Am
|-12-10-8-10-8----8---------------12-10-8-10-8----8---------------|
|--------------12---12-10-12-10-8--------------12---12-10-12-10-8-|
|-----------------------------------------------------------------|
|-----------------------------------------------------------------|
|-----------------------------------------------------------------|
|-----------------------------------------------------------------|
|
|--8--7-5--7-5----5----------------8--7-5--7-5----5---------------|
|---------------8----8--6--8--6-5---------------8----8--6--8--6-5-|
|-----------------------------------------------------------------|
|-----------------------------------------------------------------|
|-----------------------------------------------------------------|
|-----------------------------------------------------------------|


  G
|-10-8-7-8-7----7--------------10-8-7-8-7----7---------------|
|------------10---10-8-10-8---------------10---10-8-10-8-----|
|---------------------------10---------------------------10--|
|------------------------------------------------------------|
|------------------------------------------------------------|
|------------------------------------------------------------|
|
|--7-5-3-5-3----3---------------7-5-3-5-3----3---------------|
|-------------6----6-5--6-5--3-------------6----6-5--6-5--3--|
|------------------------------------------------------------|
|------------------------------------------------------------|
|------------------------------------------------------------|
|------------------------------------------------------------|


  F
|-8-7-5-7-5---5-----------8-7-5-7-5---5-----------|
|-----------8---8-6-8-6-5-----------8---8-6-8-6-5-|
|-------------------------------------------------|
|-------------------------------------------------|
|-------------------------------------------------|
|-------------------------------------------------|
|
|-5-3-1-3-1---1-----------5-3-1-3-1---1-----------|
|-----------5---5-3-5-3-1-----------5---5-3-5-3-1-|
|-------------------------------------------------|
|-------------------------------------------------|
|-------------------------------------------------|
|-------------------------------------------------|


  Em
|-7-5-3-5-3---3------------------------------------|
|-----------6---6-5-6-5-3-5-3---3------------------|
|-----------------------------5---5-4-5-4-2-4-2----|
|-----------------------------------------------5--|
|--------------------------------------------------|
|--------------------------------------------------|
|
|-3-1---1------------------------------------------|
|-----5---5-3-5-3-1-3-1---1------------------------|
|-----------------------4---4-2-4-2---2------------|
|-----------------------------------5---5-3-5-3-2--|
|--------------------------------------------------|
|--------------------------------------------------|


  C                                                 E
                                                   2/4
|-------------------------------------------------|------||
|-------------------------------------------------|------||
|-2-----------------------------------------------|------||
|---5-3-5-3-2-3-2---2-----------------------------|------||
|-----------------5---5-3-5-3-2-3-2---2-----------|------||
|-----------------------------------5---5-3-5-3-1-|-0----||
|
|-------------------------------------------------|------||
|-------------------------------------------------|------||
|-------------------------------------------------|------||
|-3-2---2-----------------------------------------|------||
|-----5---5-3-5-3-2-3-2---2-----------2-----------|------||
|-----------------------5---5-3-5-3-1---5-3-5-3-1-|-0----||


  E
|-------13-16-13----13S12---10----13---10-----------10-13-10----10S7-10-7---|
|-12-15----------15-------------------------12-9-12----------12-----------9-|
|---------------------------------------------------------------------------|
|---------------------------------------------------------------------------|
|---------------------------------------------------------------------------|
|---------------------------------------------------------------------------|
|
|-------10-13-10----10S===7----10----7---------------7-10--7-----7S4--7-4---|
|--9-12----------12-----------------------9----6--9-----------9-----------6-|
|---------------------------------------------------------------------------|
|---------------------------------------------------------------------------|
|---------------------------------------------------------------------------|
|---------------------------------------------------------------------------|


|----------------------------------------------------|
|-10-9-8-9-8-7-8-7-6-7-6-5-6-5-4-5-4-3-4-3-2-3-2-1---|
|----------------------------------------------------|
|----------------------------------------------------|
|----------------------------------------------------|
|----------------------------------------------------|
|
|----------------------------------------------------|
|--6-5-4-5-4-3-4-3-2-3-2-1---------------------------|
|--------------------------6-5-4-5-4-3-4-3-2-3-2-1---|
|----------------------------------------------------|
|----------------------------------------------------|
|----------------------------------------------------|


|----------10--------------------------------------------|
|-----9-12----12--9-12S9-12-9----------9-9-----9S6-9-6---|
|-10--------------------------10----10-----------------7-|
|--------------------------------12----------------------|
|--------------------------------------------------------|
|--------------------------------------------------------|
|
|--------------------------------------------------------|
|--------9-12--9-----9s6--9-6----------6-9-6---6s3-6-3---|
|--7-10----------10------------7-----7-------7---------4-|
|---------------------------------9----------------------|
|--------------------------------------------------------|
|--------------------------------------------------------|


  E                                                 F#�
|-------------------------------------------------|--------------2-8-5------------|
|-------------------------------------------------|--------------------7----------|
|-8-7-6-7-6-5-6-5-4-5-4-3-4-3-2-3-2-1-2-1-0-1-0---|----------2-5---------5--------|
|-----------------------------------------------3-|-4----------------------4-4----|
|-------------------------------------------------|-------------------------------|
|-------------------------------------------------|-------------------------------|
|
|-------------------------------------------------|-------------------------------|
|-------------------------------------------------|-------------------------------|
|-5-4-3-4-3-2-3-2-1-------------------------------|-------------------------------|
|-------------------7-6-5-6-5-4-5-4-3-4-3-2-3-2-1-|----4tr7h10--------------------|
|-------------------------------------------------|-------------------------------|
|-------------------------------------------------|-2-----------------------------|


  A�                                 B�
|-------------5-11-8----------|--------------7-13-10-----------|
|--------------------10-------|----------------------12--------|
|---------5-8-----------8-----|-----------10------------10-----|
|------7------------------7-7-|------9--9------------------9-9-|
|-----------------------------|--------------------------------|
|-----------------------------|--------------------------------|
|
|-----------------------------|--------------------------------|
|-----------------------------|-3tr6h9-------------------------|
|-2tr5h8----------------------|--------------------------------|
|-----------------------------|--------------------------------|
|-----------------------------|--------------------------------|
|-----------------------------|--------------------------------|


  G#�
                          2/4
|----------------10------|--------------||
|--------------9----12-9-|--------------||
|------------------------|--------------||
|-----------12-----------|-12-----------||
|-11-----11--------------|----11--------||
|-----12-----------------|-------12-----||
|
|------------------------|--------------||
|------------------------|--------------||
|-----------------7--4---|--------------||
|--------------6-------6-|--------------||
|------------5-----------|--5-----------||
|--4---0--4--------------|-----4--0-----||


  Tempo II Q=90
  A5                                 E5              G5
 4/4
  Gtr II
  |                |                 |                |
  /                /                 /                /

  Gtr I
|-----------12--|-13p==12p10h12----|------------12-|-12--(12)p10h12p10p8-10----|
|-------10------|------------------|-------10------|---------------------------|
|---/9----------|------------------|---/9----------|---------------------------|
|---------------|------------------|---------------|---------------------------|
|---------------|------------------|---------------|---------------------------|
|---------------|------------------|---------------|---------------------------|


  D5                F5                 E5            A5
    |               |                  |             |
    /               /                  /             /

                            \0.25
                                       ~~~~~~~       ~
|-(10)----------7-|-8p==7------------|-------------|-------------------|
|----------10-----|-------8----------|------9------|-------------------|
|-------9---------|---------9--------|-7--------10-|-9------9----------|
|-----------------|------------------|-------------|----------10----7--|
|-----------------|------------------|-------------|-------------10----|
|-----------------|------------------|-------------|-------------------|


  A5
  |                    |
  /                    x

                                            ~~
|------------12--|-12h13--(13)p12h13p12p10h12----|
|--------10------|-------------------------------|
|----/9----------|-------------------------------|
|----------------|-------------------------------|
|-7--------------|-------------------------------|
|----------------|-------------------------------|


  E5                 G5
    |                 |
    /                 /

|-(12)----------12-|-12--(12)p10h12p10p8-10----|
|-----------10-----|---------------------------|
|-------9----------|---------------------------|
|------------------|---------------------------|
|------------------|---------------------------|
|------------------|---------------------------|


  A5                 F5                 E5           A5
    |                |                  |            |
    /                /                  /            /

                             \0.25
                                                     ~
|-(10)----------7--|-8---7------------|------------|------|
|-----------10-----|-------8----------|------9p==6-|------|
|-------/9---------|---------9--------|-7----------|-9----|
|------------------|------------------|------------|------|
|------------------|------------------|------------|------|
|------------------|------------------|------------|------|


  Bm
  Gtr I
                                ~~
|------------14--|-15p===14-12-14-----|
|--------12------|--------------------|
|----11----------|--------------------|
|----------------|--------------------|
|----------------|--------------------|
|----------------|--------------------|
|
| Gtr II
|----------------|--------------------|
|-----3---2---3--|-----3--------2--3--|
|----------------|--------------------|
|----------------|--------------------|
|-2--------------|--2-----------------|
|----------------|--------------------|


  F#m                  A
                         ~~~~                 ~~
|-(14)-----------14--|-(14)--14p=12h14p12p10h12----|
|------------12------|-----------------------------|
|-------/11----------|-----------------------------|
|--------------------|-----------------------------|
|--------------------|-----------------------------|
|--------------------|-----------------------------|
|
|--------------------|-----------------------------|
|---2----------------|---2---(2)-------------------|
|---------5---4---5--|------------2-----------2----|
|--------------------|-----------------------------|
|--------------------|-----------------------------|
|--------------------|-----------------------------|


  E                     G
                                     \0.25
                         ~~
|-(12)----------------|-10----------------------|
|------------12---14--|-------14----------------|
|-------11------------|----------14-11----------|
|---------------------|-------------------------|
|---------------------|-------------------------|
|---------------------|-------------------------|
|
|---------------------|-------------------------|
|----------5--7p5-----|--------5-----7-----5----|
|--------4---------4--|-----4----------------4--|
|---2-----------------|--5----------------------|
|---------------------|-------------------------|
|---------------------|-------------------------|


  F#m                       Bm
   ~~~~~~~~~~~~~~~
|-------------------------|---------------|
|-------------10p=======8-|--7------7-----|
|--9----------------------|-----------7---|
|-------------------------|-------------7-|
|-------------------------|---------------|
|-------------------------|---------------|
|
|----17-21-17-21-22-21-17-|-19------------|
|-19----------------------|---------------|
|-------------------------|---------------|
|-------------------------|---------------|
|-------------------------|---------------|
|-------------------------|---------------|


  Bm
                                            ~~
|------------14--|-14-(14)-14-(14)---14-12-14-----|
|--------12------|--------------------------------|
|----11----------|--------------------------------|
|----------------|--------------------------------|
|-9--------------|--------------------------------|
|----------------|--------------------------------|
|
|----------------|--------------------------------|
|-----3---2---3--|-----------------3--------2--3--|
|----------------|--------------------------------|
|----------------|--------------------------------|
|-2--------------|------2-------------------------|
|----------------|--------------------------------|


  F#m                  A
                                             ~~
|-14\-------------14-|-14--(14)-12-14-12-10-12----|
|-----------12-------|----------------------------|
|------/11-----------|----------------------------|
|--------------------|----------------------------|
|--------------------|----------------------------|
|--------------------|----------------------------|
|
|--------------------|----------------------------|
|--2-----------------|--2---(2)-------------------|
|--------5---4--5----|-----------2-----------2----|
|--------------------|----------------------------|
|--------------------|----------------------------|
|--------------------|----------------------------|


  E                     G
                                     \0.25
|-(12)----------------|-------------------------|
|------------12---14h=|=15p===14----------------|
|-------11------------|----------14-11----------|
|---------------------|-------------------------|
|---------------------|-------------------------|
|---------------------|-------------------------|
|
|---------------------|-------------------------|
|----------5--7p5-----|--------5-----7-----5----|
|--------4---------4--|-----4----------------4--|
|---2-----------------|--5----------------------|
|---------------------|-------------------------|
|---------------------|-------------------------|


  F#m                       Bm
                           2/4
   ~~~~~~~~~~~~~~~
|-------------------------|--------|
|-------------10p=======8-|--7-----|
|--9----------------------|--------|
|-------------------------|--------|
|-------------------------|--------|
|-------------------------|--------|
|
|----17-21-17-21-22-21-17-|-19-----|
|-19----------------------|--------|
|-------------------------|-----x--|
|-------------------------|--------|
|-------------------------|--------|
|-------------------------|--------|


                               Tempo III Q=110
  N.C.                         E
 4/4
|-----0-9-------------15----||---------------------------------------------|
|------------------11----12-||----------------------------------------9----|
|---1-----10-----7----------||-9-----------------------------------9-----9-|
|------------7--------------||----------------------------------9----------|
|--------------8------------||---------------------------------------------|
|-2-------------------------||---------------------------------------------|
|
|---------------------------||---------------------------------------------|
|---------------------------||-9-12----12---12---12----12---12----12----12-|
|---------------------------||------11----9----8---------------------------|
|---------------------------||----------------------11----9----------------|
|---------------------------||---------------------------------12----11----|
|---------------------------||---------------------------------------------|


|--------------------------------------------------|
|--------------------------------------9---10------|
|-11-----------------------------11----------------|
|--------------------------------------------------|
|--------------------------------------------------|
|--------------------------------------------------|
|
|--------------------------------------------------|
|--7-10---10---10---10---10---10----10--------10---|
|-------9----8----6--------------------------------|
|----------------------9----7-----6------7---------|
|--------------------------------------------------|
|--------------------------------------------------|


|---------------------------------------|
|-9-----------------------10-(10)-------|
|---------------------------------------|
|---------------------------------------|
|---------------------------------------|
|---------------------------------------|
|
|---------------------------------------|
|-5-9---9---9---9---9---9---------9---9-|
|-----8---6---4-------------------------|
|-----------------7---6--------5----6---|
|---------------------------------------|
|---------------------------------------|


|---------------------------------------------------|---------------------------------|
|-(10)---10---9-------------------------------------|---------------------------------|
|-----------------11---------------11-(11)---(11)---|-9---------------9---------------|
|---------------------------------------------------|-------------9-------------------|
|---------------------------------------------------|---------------------------------|
|---------------------------------------------------|---------------------------------|
|
|---------------------------------------------------|-------4-7-4-----------4-7-4-----|
|---4--7--------7----7---7---7---7---------7------7-|-5---5-------5---5---5-------5---|
|-----------6------4--------------------------------|---4-----------4---4-----------4-|
|----------------------7---6---4--------3------4----|---------------------------------|
|---------------------------------------------------|---------------------------------|
|---------------------------------------------------|---------------------------------|


  E                       A
|-------------------------------------------|
|----------9---12---10----9h10p==9----------|
|-9---11---------------------------11---9---|
|-------------------------------------------|
|-------------------------------------------|
|-------------------------------------------|
|
|-7-4--5---4---------9----7-----------------|
|--------7---5--7-4----10------9---10-7-9---|
|-----------------------------------------9-|
|-------------------------------------------|
|-------------------------------------------|
|-------------------------------------------|


  B                       E
                                           2/4
       ~~~~                ~~                    ~~~~
|-----------------------------------------|-10-(10)--------------------|
|-----------------------------------------|----------------------------|
|-11-(11)--------8---11----9--------------|----------------------------|
|-----------------------------------------|----------------------------|
|-----------------------------------------|----------------------------|
|-----------------------------------------|----------------------------|
|
|-----11--7-9----7-9-11-7-12-7------------|---------------------11-12--|
|-------------10---------------9----------|----------------9-12--------|
|--------------------------------9--------|--------------9-------------|
|----------------------------------9------|------------9---------------|
|------------------------------------11-7-|---------11-----------------|
|-----------------------------------------|-----12---------------------|


  Am                                                            Em
 4/4
                                                                     ~~~~
|-------------------------------------------------------------|------------------------------------------------------------|
|-13----------------12-13----12-10-12-13-10-12-13----10-12-13-|-13-(13)----------------13----12----12-13-15-12----13-15----|
|-------------------------------------------------------------|---------------------------------14-------------------------|
|-------------------------------------------------------------|------------------------------------------------------------|
|-------------------------------------------------------------|------------------------------------------------------------|
|-------------------------------------------------------------|------------------------------------------------------------|
|
|-12-17----17----17-------17-------17----17-------17-------17-|---------15----15----15----15----15----15-------15-------15-|
|-------13----------------------------------------------13----|-----15-----12----------------------------------------12----|
|-------------14----------------------------14----------------|------------------12----------------------12----------------|
|-------------------14----------------14----------------------|------------------------12----------12----------------------|
|-------------------------------15----------------------------|------------------------------14----------------------------|
|-------------------------------------------------------------|------------------------------------------------------------|


  F
       ~~~~
|---------------------------------------------------------------------------|
|-15-(15)----------------15-13-12-15----13-15-13----12-13-15----17-17-------|
|---------------------------------------------------------------------------|
|---------------------------------------------------------------------------|
|---------------------------------------------------------------------------|
|---------------------------------------------------------------------------|
|
|---------13----13----13----13-------13----------13----------13-------13----|
|-----13-----10----------------------------------------------------10-------|
|------------------10----------------------------------10-------------------|
|------------------------10----------------10-------------------------------|
|------------------------------12-------------------------------------------|
|---------------------------------------------------------------------------|


  E                                                Am
                           ~~~~
|------------------------------------------------|-----------------------------------------|
|-(17)-15-13h15p===13-----12---(12)\-------------|-13--------------------------------------|
|------------------------------------------------|-----------------------------------------|
|------------------------------------------------|-----------------------------------------|
|------------------------------------------------|-----------------------------------------|
|------------------------------------------------|-----------------------------------------|
|
|------------------------------------------10----|----12----17-12--------------------------|
|--12---9-------------13-(13)---------9-12----12-|-------13-------13-10--------------------|
|---------10-------------------------------------|-14-------------------9------------------|
|---------------12-------------------------------|------------------------10-7-----------7-|
|------------------------------------------------|-----------------------------7-------7---|
|------------------------------------------------|-------------------------------8-5-8-----|


  Dm
|--------------------------------------------------|
|-13-(13)-----------------------------(13)---12-12-|
|--------------------------------------------------|
|--------------------------------------------------|
|--------------------------------------------------|
|--------------------------------------------------|
|
|-----------------------10-10----------------------|
|--------------------10-------10-------------------|
|---------------7-10-------------10-7--------------|
|-------------7-------------------------7----------|
|------8--5-8------------------------------8-------|
|--------------------------------------------10--8-|


  G                                               C                       E
|-----------------------------------------------|-12----------------13-12-------------------------|
|-(12)---------------------------------12-13-15-|-------------------------15----------------------|
|-----------------------------------14----------|-------------------------------------------------|
|-----------------------------------------------|-------------------------------------------------|
|-----------------------------------------------|-------------------------------------------------|
|-----------------------------------------------|-------------------------------------------------|
|
|---------------7-10s15-10----------------------|-------------12-15s20-15-19-17-15----------------|
|-------------8------------12-------------------|----------13----------------------18-17-15-------|
|-----------7-----------------12----------------|-------12----------------------------------16----|
|---------9----------------------12--9-----9----|-10-14----------------------------------------17-|
|------10------------------------------10-------|-------------------------------------------------|
|---7-------------------------------------------|-------------------------------------------------|


  Am                               F
|-------------------------------------------13----------------|
|-13-------13-17p15h17p15-13-------------13----17-15p13h15p13-|
|-------14-------------------16-14----14----------------------|
|----14----------------------------15-------------------------|
|-------------------------------------------------------------|
|-------------------------------------------------------------|
|
|-------------------------------------------------------------|
|----------12-13----12----------------------------------------|
|-14----------------------14-12----------12-14-12-------------|
|-------------------------------15----------------15----14----|
|-------------------------------------------------------------|
|-------------------------------------------------------------|


  G                             C
|-------------15-------------------15----15----15----15-|
|----------15----18-17p15h17p15-------------------------|
|-16----16----------------------17----16----14----12----|
|----17-------------------------------------------------|
|-------------------------------------------------------|
|-------------------------------------------------------|
|
|-------------------------------------------------------|
|-------------12-------------------13----13----13----13-|
|-12-------14----14-12----------------------------------|
|-------------------------15----14----12----10-----9----|
|-------------------------------------------------------|
|-------------------------------------------------------|


  Am                            F                               G                             C
                                                                                                           ~~
|-------------------------------------------13----------------|-------------15-------------------15----15-------|
|-13-------13-17p15h17p15-13-------------13----17-15p13h15p13-|----------15----18-17-15-17-15-------------------|
|-------14-------------------16-14----14----------------------|-16----16----------------------17----16----17----|
|----14----------------------------15-------------------------|----17-------------------------------------------|
|-------------------------------------------------------------|-------------------------------------------------|
|-------------------------------------------------------------|-------------------------------------------------|
|
|                                                                                                          ~~
|-------------------------------------------------------------|-------------------------------------------------|
|----------12-13----12----------------------------------------|-------------12-------------------13----13-------|
|-14----------------------14-12----------12-14-12-------------|-12-------14----14-12----------------------------|
|-------------------------------15----------------15----14----|-------------------------15----14----12----14----|
|-------------------------------------------------------------|-------------------------------------------------|
|-------------------------------------------------------------|-------------------------------------------------|


     Dm
|-----17p=13----13-17p13-17p13----13-17p13-17p13----13-17p13-17p13----13-17p13-|
|------------15----------------15----------------15----------------15----------|
|------------------------------------------------------------------------------|
|------------------------------------------------------------------------------|
|------------------------------------------------------------------------------|
|------------------------------------------------------------------------------|
|
|      ~~~~
|------------------------------------------------------------------------------|
|-13-(13)----------------------------------------------------------------------|
|------------------------------------------------------------------------------|
|------------------------------------------------------------------------------|
|------------------------------------------------------------------------------|
|------------------------------------------------------------------------------|


  B
|-----14p=11----11-14p11-14p11----11-14p11-14p11----11-14p11-14p11----11-14p11-|
|------------12----------------12----------------12----------------12----------|
|------------------------------------------------------------------------------|
|------------------------------------------------------------------------------|
|------------------------------------------------------------------------------|
|------------------------------------------------------------------------------|
|
|      ~~~~
|------------------------------------------------------------------------------|
|-14-(14)----------------------------------------------------------------------|
|------------------------------------------------------------------------------|
|------------------------------------------------------------------------------|
|------------------------------------------------------------------------------|
|------------------------------------------------------------------------------|


     Em
|-----15p=12----12-15p12-15p12----12-15p12-15p12----12-15p12-15p12----12-15p===12---|
|------------12----------------12----------------12----------------12---------------|
|-----------------------------------------------------------------------------------|
|-----------------------------------------------------------------------------------|
|-----------------------------------------------------------------------------------|
|-----------------------------------------------------------------------------------|
|
|      ~~~~
|---------------------------------------------------12-------12-------------14------|
|-15-(15)----------------------------------15---------------------------------------|
|-----------------------------------------------------------------------------------|
|-----------------------------------------------------------------------------------|
|-----------------------------------------------------------------------------------|
|-----------------------------------------------------------------------------------|


  C
|-15p12----12-15p12-15p12----12-15p12--15p=12----12-15p12-15p12----12-15p12-|
|-------13----------------13------------------13----------------13----------|
|---------------------------------------------------------------------------|
|---------------------------------------------------------------------------|
|---------------------------------------------------------------------------|
|---------------------------------------------------------------------------|
|
|-15------------------------------------------------------------------------|
|----------13-------------------------(13)----------------------------------|
|---------------------------------------------------------------------------|
|---------------------------------------------------------------------------|
|---------------------------------------------------------------------------|
|---------------------------------------------------------------------------|


     Dm
|-----17p=13----13-17p13-17p13----13-17p13-17p13----13-17p13-17p13----13-17p13-|
|------------15----------------15----------------15----------------15----------|
|------------------------------------------------------------------------------|
|------------------------------------------------------------------------------|
|------------------------------------------------------------------------------|
|------------------------------------------------------------------------------|
|
|------------------------------------------------------------------------------|
|-13-(13)----------------------------------------------------------------------|
|------------------------------------------------------------------------------|
|------------------------------------------------------------------------------|
|------------------------------------------------------------------------------|
|------------------------------------------------------------------------------|


  B
|-----14p=11----11-14p11-14p11----11-14p11-14p11----11-14p11-14p11----11-14p11-|
|------------12----------------12----------------12----------------12----------|
|------------------------------------------------------------------------------|
|------------------------------------------------------------------------------|
|------------------------------------------------------------------------------|
|------------------------------------------------------------------------------|
|
|------------------------------------------11----------------------------------|
|-14-(14)----------------------------------------------12----------14----------|
|------------------------------------------------------------------------------|
|------------------------------------------------------------------------------|
|------------------------------------------------------------------------------|
|------------------------------------------------------------------------------|


  Em
|-15p12--------12--15p12-15p12----12-15p12-15p12----12-15p12-15p12----12-15p12----|
|-------12---------------------12----------------12----------------12-------------|
|---------------------------------------------------------------------------------|
|---------------------------------------------------------------------------------|
|---------------------------------------------------------------------------------|
|---------------------------------------------------------------------------------|
|
|---------------------------------------------------------------------------------|
|-12-------15-(15)-------------------------15----------------12-----x-----x-------|
|---------------------------------------------------------------------------------|
|---------------------------------------------------------------------------------|
|---------------------------------------------------------------------------------|
|---------------------------------------------------------------------------------|


  Cm
|-11p8---8-11p8-11p8-------8-11p===8-11p8---8-11p8-11p8---8-11p8-|
|------8----------------8-----------------8-------------8--------|
|----------------------------------------------------------------|
|----------------------------------------------------------------|
|----------------------------------------------------------------|
|----------------------------------------------------------------|
|
|                                     ~~~
|---------------11-----------------------------------------------|
|-13-----------------13------------------------------------------|
|-------------------------12-------------------------------------|
|-------------------------------13---10--------------------------|
|----------------------------------------------------------------|
|----------------------------------------------------------------|


  Bb�
|--9p6---6-9p6-9p6---6-9p6--9p6---6-9p6--9p6---6-9p6----|
|------8-----------8------------8------------8----------|
|-------------------------------------------------------|
|-------------------------------------------------------|
|-------------------------------------------------------|
|-------------------------------------------------------|
|
|-------------------------------------------------------|
|-11-----------------------14---------------------------|
|---------------------------------------12--------------|
|-------------------------------------------------------|
|-------------------------------------------------------|
|-------------------------------------------------------|


  Bb
|-10p6---6-10p6-10p6---6-10p6-10p6---6-10p6-10p6---6-10p6-|
|------6-------------6-------------6-------------6--------|
|---------------------------------------------------------|
|---------------------------------------------------------|
|---------------------------------------------------------|
|---------------------------------------------------------|
|
|---------------------------------------------------------|
|-11------------------------------------------------------|
|---------------------------------------------------------|
|---------------------------------------------------------|
|---------------------------------------------------------|
|---------------------------------------------------------|


     Db�
|-12p9----9-12p9-12p9----9-12p9-12p9-----9-12p=9-12p9----9-12p9--|
|------11-------------11-------------11---------------11---------|
|----------------------------------------------------------------|
|----------------------------------------------------------------|
|----------------------------------------------------------------|
|----------------------------------------------------------------|
|
|----------------------------------------------------------------|
|-14----------------------------17------14h17p14s11--------------|
|----------------------------------------------------------------|
|----------------------------------------------------------------|
|----------------------------------------------------------------|
|----------------------------------------------------------------|


  Bb
|-13p10----10-13p10-13p10----10-13p10-13p10----10-13p10-13p10----10-13p10-|
|-------11----------------11----------------11----------------11----------|
|-------------------------------------------------------------------------|
|-------------------------------------------------------------------------|
|-------------------------------------------------------------------------|
|-------------------------------------------------------------------------|
|
|-------------------------------------------------------------------------|
|-15----------------------------------------------------------------------|
|-------------------------------------------------------------------------|
|-------------------------------------------------------------------------|
|-------------------------------------------------------------------------|
|-------------------------------------------------------------------------|


  E�
|-15p12----12-15p12-15p12----12-15p12-18p12----------12----15p===12-18p12----------12----15p===12---|
|-------14----------------14-------------------14----------------------------14---------------------|
|---------------------------------------------------------------------------------------------------|
|---------------------------------------------------------------------------------------------------|
|---------------------------------------------------------------------------------------------------|
|---------------------------------------------------------------------------------------------------|
|
|-12----------------------------------15----12h===15p===12------------------------------------------|
|-------------------------------------------------------------13----17----13h===17p===13------------|
|-------------------------------------------------------------------------------------------15------|
|---------------------------------------------------------------------------------------------------|
|---------------------------------------------------------------------------------------------------|
|---------------------------------------------------------------------------------------------------|


  Dm                                  Bb
|-17p13----13-17p13-17p13----13-17p13-18p13----13-17p13-18p13----13-18p13-|
|-------15----------------15----------------15----------------15----------|
|-------------------------------------------------------------------------|
|-------------------------------------------------------------------------|
|-------------------------------------------------------------------------|
|-------------------------------------------------------------------------|
|
|-------------------------------------------------------------------------|
|-------------------------------------------------------------------------|
|-15-------14-------------------------15----------14----------12----------|
|-------------------------------------------------------------------------|
|-------------------------------------------------------------------------|
|-------------------------------------------------------------------------|


     D
|-17p14----14-17p14-17p14----14-17p14--17p=14----14-17p14-17p14----14-17p14--|
|-------15----------------15------------------15----------------15-----------|
|----------------------------------------------------------------------------|
|----------------------------------------------------------------------------|
|----------------------------------------------------------------------------|
|----------------------------------------------------------------------------|
|
|----------------------------------------------------------------------------|
|----------------------------------------------------------------------------|
|-11----------------------------------(11)----------11----11----12----14-----|
|----------------------------------------------------------------------------|
|----------------------------------------------------------------------------|
|----------------------------------------------------------------------------|


  A                                   F#
|-17p12----12-17p12-17p12----12-17p12-18p14----14-18p14-18p14----14-18p14-|
|-------14----------------14----------------14----------------14----------|
|-------------------------------------------------------------------------|
|-------------------------------------------------------------------------|
|-------------------------------------------------------------------------|
|-------------------------------------------------------------------------|
|
|-------------------------------------------------------------------------|
|-------------------------------------------------------------------------|
|-------------------------------------------------------------------------|
|-11----------------------------------------------------------------------|
|-------------------------------------13----------------------------------|
|----------------------------------------------------------------14-------|


  Bm
|-19p14----14-19p14-19p14----14-19p14--19p=14----14-19p14-19p14----14-19p14--|
|-------15----------------15------------------15----------------15-----------|
|----------------------------------------------------------------------------|
|----------------------------------------------------------------------------|
|----------------------------------------------------------------------------|
|----------------------------------------------------------------------------|
|
|----------------------------------------------------------------------------|
|----------------------------------------------------------------------------|
|----------------------------------------------------------------------------|
|---------------------------------------------------------------11----12-----|
|-------------------14----------------(14)----------14----14-----------------|
|-14-------------------------------------------------------------------------|


  Gm
|-18p15----15-18p15-18p15----15-18p15-18p15----15-18p15-18p15----15-18p15-|
|-------15----------------15----------------15----------------15----------|
|-------------------------------------------------------------------------|
|-------------------------------------------------------------------------|
|-------------------------------------------------------------------------|
|-------------------------------------------------------------------------|
|
|-------------------------------------------------------------------------|
|-------------------------------------------------------------------------|
|-------------------------------------------------------------------------|
|-12----------------------------------------------------------------------|
|-------------------10----------------------------------------------------|
|-------------------------------------------------------------------------|


  D
|-17p14----14-17p14-17p14----14-17p14--17p=14----14-17p14-17p14----14-17p14--|
|-------15----------------15------------------15----------------15-----------|
|----------------------------------------------------------------------------|
|----------------------------------------------------------------------------|
|----------------------------------------------------------------------------|
|----------------------------------------------------------------------------|
|
|----------------------------------------------------------------------------|
|----------------------------------------------------------------------------|
|-11----------------------------------(11)----------11----11----12----14-----|
|---------------------------------------------12-----------------------------|
|----------------------------------------------------------------------------|
|----------------------------------------------------------------------------|


  A                                        F#
|-----17p=12----12-17p12-17p12----12-17p12-18p14----14-18p14-18p14----14-18p14-|
|------------14----------------14----------------14----------------14----------|
|------------------------------------------------------------------------------|
|------------------------------------------------------------------------------|
|------------------------------------------------------------------------------|
|------------------------------------------------------------------------------|
|
|------------------------------------------------------------------------------|
|------------------------------------------------------------------------------|
|-14-(14)-------------------------14-------12-------11-------12p===11----------|
|------------------------------------------------------------------------12----|
|------------------------------------------------------------------------------|
|------------------------------------------------------------------------------|


  Bm
|-19p14----14-19p14--19p=14----14-19p14-19p14----14-19p14-19p14------14-19p14-|
|-------15------------------15----------------15-----------------15-----------|
|-----------------------------------------------------------------------------|
|-----------------------------------------------------------------------------|
|-----------------------------------------------------------------------------|
|-----------------------------------------------------------------------------|
|
|-----------------------------------------------------------------------------|
|---------------------------------------------------------12----(12)----12----|
|-11----------11----(11)------------------------------------------------------|
|-------12--------------------------------------------------------------------|
|-----------------------------------------------------------------------------|
|-----------------------------------------------------------------------------|


  Gm
|--18p=15----15-18p15-18p15----15-18p15-18p15----15-18p15-18p15----15-18p15-|
|---------15----------------15----------------15----------------15----------|
|---------------------------------------------------------------------------|
|---------------------------------------------------------------------------|
|---------------------------------------------------------------------------|
|---------------------------------------------------------------------------|
|
|----------------------------9----------------------------------------------|
|-(12)----------------12----------12----------------------------------------|
|---------------------------------------12----------------11-------12-------|
|---------------------------------------------------------------------------|
|---------------------------------------------------------------------------|
|---------------------------------------------------------------------------|


  D
 5/4
        ~~~~~~~~~~~~~
|-----------------------||
|--20-(20)------(20)----||
|-----------------------||
|-----------------------||
|-----------------------||
|-----------------------||
|
|       ~~~~~~~~~~~~~
|-----------------------||
|-----------------------||
|------11-------(11)----||
|-----------------------||
|-----------------------||
|-----------------------||


   Q=155
  Em
 4/4
|------------------|------------7-----|
|------------------|---8-8--------8---|
|------------9-9---|-------9--------9-|
|--9-9-----------9-|-9-------9--------|
|------10-10-------|------------------|
|------------------|------------------|
|
|------------------|---7-7-----12-7---|
|------------8-8---|-------8--------8-|
|--9-9-----------9-|-9-------9--------|
|-------9--9-------|------------------|
|------------------|------------------|
|------------------|------------------|


  B
|------------------------|--------------------------------|
|------------------------|----10-10-------13-10h13p10-----|
|----8--8-------11-11--8-|--8-------11-11-------------11--|
|---------10-10----------|--------------------------------|
|-9----------------------|--------------------------------|
|------------------------|--------------------------------|
|
|------------------------|--------------------------------|
|------------------------|-----7--7-------10--7h10p=7-----|
|----------------8--8----|-----------8--8--------------8--|
|---10-10--7--7-------10-|-10-----------------------------|
|-9----------------------|--------------------------------|
|------------------------|--------------------------------|


  E
|-------------------|---10-10-------12-11h12p11p10-|
|---9-9-----12-12-9-|-9-------12-12----------------|
|-------9-9---------|------------------------------|
|-9-----------------|------------------------------|
|-------------------|------------------------------|
|-------------------|------------------------------|
|
|-------------------|----7--7--------8--7h=8p=7p=6-|
|------------9--9---|----------9--9----------------|
|---9-9-----------9-|-9----------------------------|
|-------9-9---------|------------------------------|
|-7-----------------|------------------------------|
|-------------------|------------------------------|


  Am
|-8-12-12-------8-8---|----------------------|
|---------10-10-------|---10-10--------------|
|-------------------9-|-9-------------9------|
|---------------------|---------10-10---10-7-|
|---------------------|----------------------|
|---------------------|----------------------|
|
|-5--8--8-------5-5---|----------------------|
|----------5--5-------|----5--5--------------|
|-------------------5-|-5-------------5------|
|---------------------|----------7--7----7---|
|---------------------|--------------------7-|
|---------------------|----------------------|


  D
|-----------------|-------------10------|
|-----------7-7---|---10-10-7-7----10-7-|
|---7-7---------7-|-7-------------------|
|-------7-7-------|---------------------|
|-9---------------|---------------------|
|-----------------|---------------------|
|
|-----------------|--------------5------|
|-----------------|----7--7---------7---|
|-----------7-7---|---------7-7-------7-|
|---7-7-4-4-----7-|-7-------------------|
|-5---------------|---------------------|
|-----------------|---------------------|


  Gm                    A
|---10-10-------------|----------12p9----------|
|-8-------11-11-8-8---|-----8-11------11-8-----|
|-------------------7-|-6-9----------------9-6-|
|---------------------|------------------------|
|---------------------|------------------------|
|---------------------|------------------------|
|
|---------------------|-----------9p6----------|
|----8--8-------------|--------8-------8-5-----|
|----------7--7-------|---6-9--------------6---|
|-8-------------8-8-5-|-8--------------------8-|
|---------------------|------------------------|
|---------------------|------------------------|


  Dm                     A
|----------------------|--------------------|
|---10-10--------------|---10-9-8-----------|
|-7-------10-10--7-7---|-----------9--6-----|
|--------------------7-|----------------8-5-|
|----------------------|-0------------------|
|----------------------|--------------------|
|
|----------------------|--------------------|
|----------------------|--------------------|
|----------------------|-6--------(6)-6---6-|
|-7----------(7)-7-6-7-|----------------8---|
|----------------------|--------------------|
|----------------------|--------------------|


  Dm                    A
|-------------------|------------------------------12-15-13--|
|-------------------|---------------------------14-----------|
|-----7-------------|---------------------12-15--------------|
|---7---7-----------|----------------9-14--------------------|
|-8--------8--5-8---|----------10-13-------------------------|
|-------------------|----9--12-------------------------------|
|
|-------------------|----------------------------------------|
|-------------------|----------------------------------------|
|-7-------(7)-7-6-7-|-7-(7)----------------------------------|
|-------------------|----------------------------------------|
|-------------------|----------------------------------------|
|-------------------|----------------------------------------|


    Dm                Bb                    E7b9
||--17p13----------13-18p13-18p13----13--||-16p13----------------------13-16-13h16p13----16-|
||o-------15----15----------------15----o||-------15-12----------12-15----------------15----|
||-----------14--------------------------||-------------13----13----------------------------|
||---------------------------------------||----------------15-------------------------------|
||o-------------------------------------o||-------------------------------------------------|
||---------------------------------------||-------------------------------------------------|
|
||--13p10----------10-15p10-15p10----10--||-13p10----------------------10-13-10h13p10----10-|
||o-------10----10----------------11----o||-------12--9-----------9-12----------------12----|
||-----------10--------------------------||-------------10--7-10----------------------------|
||---------------------------------------||-------------------------------------------------|
||o-------------------------------------o||-------------------------------------------------|
||---------------------------------------||-------------------------------------------------|


     F7b9
|-17p14----------------------14-17-14h17p14----14-|
|-------16-13----------13-16----------------16----|
|-------------14-11-14----------------------------|
|-------------------------------------------------|
|-------------------------------------------------|
|-------------------------------------------------|
|
|-14p11----------------------11-14-11h14p11----11-|
|-------13-10----------10-13----------------13----|
|-------------11----11----------------------------|
|----------------13-------------------------------|
|-------------------------------------------------|
|-------------------------------------------------|


    Dm                Bb                    E7b9
||--17p13----------13-18p13-18p13----13--||-16p13----------------------13-16-13h16p13----16-|
||o-------15----15----------------15----o||-------15-12----------12-15----------------15----|
||-----------14--------------------------||-------------13----13----------------------------|
||---------------------------------------||----------------15-------------------------------|
||o-------------------------------------o||-------------------------------------------------|
||---------------------------------------||-------------------------------------------------|
|
||--13p10----------10-15p10-15p10----10--||-13p10----------------------10-13-10h13p10----10-|
||o-------10----10----------------11----o||-------12--9-----------9-12----------------12----|
||-----------10--------------------------||-------------10--7-10----------------------------|
||---------------------------------------||-------------------------------------------------|
||o-------------------------------------o||-------------------------------------------------|
||---------------------------------------||-------------------------------------------------|


  F7b9
|-17p14----------------------14-17-14h17p14----14-|
|-------16-13----------13-16----------------16----|
|-------------14-11-14----------------------------|
|-------------------------------------------------|
|-------------------------------------------------|
|-------------------------------------------------|
|
|-14p11----------------------11-14-11h14p11----11-|
|-------13-10----------10-13----------------13----|
|-------------11----11----------------------------|
|----------------13-------------------------------|
|-------------------------------------------------|
|-------------------------------------------------|


  F#7b9
|-18p15----------------------15-18-15h18p15----15-|
|-------17-14----------14-17----------------17----|
|-------------15-12-15----------------------------|
|-------------------------------------------------|
|-------------------------------------------------|
|-------------------------------------------------|
|
|-15p12----------------------12-15-12h15p12----12-|
|-------14-11----------11-14----------------14----|
|-------------12----12----------------------------|
|----------------14-------------------------------|
|-------------------------------------------------|
|-------------------------------------------------|


  G7b9                                              C
                                                                    ~~
|-19p16----------------------16-19-16h19p16----16-|-19-(19)--19-19-19----||
|-------18-15----------15-18----------------18----|----------------------||
|-------------13-16-13----------------------------|----------------------||
|-------------------------------------------------|----------------------||
|-------------------------------------------------|----------------------||
|-------------------------------------------------|----------------------||
|
|                                                                   ~~
|-16p13----------------------13-16-13h16p13----13-|-13-(13)--13-13-13----||
|-------15-12----------12-15----------------15----|----------------------||
|-------------13----13----------------------------|----------------------||
|----------------15-------------------------------|----------------------||
|-------------------------------------------------|----------------------||
|-------------------------------------------------|----------------------||


    Dm
||--17-15----18----17-15----------15-----------------||
||o-------18----18-------18-17-18----17-18-17-15----o||
||-----------------------------------------------17--||
||---------------------------------------------------||
||o-------------------------------------------------o||
||---------------------------------------------------||
|
||---------------------------------------------------||
||o--6--5-----8-----6--5-----------5----------------o||
||---------7-----7--------7--5--7-----5--7--5--------||
||---------------------------------------------8--7--||
||o-------------------------------------------------o||
||---------------------------------------------------||


      Am
|-||--15-------17----15--------------------------------||
|-||o----18-17----17----18-17-15-17-18-15-17-15-------o||
|-||--------------------------------------------17-15--||
|-||---------------------------------------------------||
|-||o-------------------------------------------------o||
|-||---------------------------------------------------||
|
|-||---------------------------------------------------||
|-||o--5--------6-----5-------------------------------o||
|-||------7--5-----5-----7--5-----5--7-----5-----------||
|-||---------------------------8--------8-----8--7--5--||
|-||o-------------------------------------------------o||
|-||---------------------------------------------------||


    Gm
||--13-------15----13--------------------------------||
||o----16-15----15----16-15-13-15-16-13-15-13-------o||
||--------------------------------------------15-14--||
||---------------------------------------------------||
||o-------------------------------------------------o||
||---------------------------------------------------||
|
||---------------------------------------------------||
||o-------------------------------------------------o||
||---7--5-----8-----7--5-----------5-----------------||
||---------8-----8--------8--7--8-----7--8--7--5-----||
||o-----------------------------------------------8-o||
||---------------------------------------------------||


  A
   ~~                         ~~
|---------------|------------------|
|---------------|------------------|
|-12----14--12--|-12---14p12p11----|
|---------------|------------------|
|---------------|------------------|
|---------------|------------------|
|
|  ~~                         ~~
|---------------|------------------|
|---------------|------------------|
|--8----10---8--|--8---10p=8p=7----|
|---------------|------------------|
|---------------|------------------|
|---------------|------------------|


  D
|-------------------------------------------|
|-------------------------------------------|
|---------------------------11-------14-----|
|-12---------------(12)---------------------|
|-------------------------------------------|
|-------------------------------------------|
|
|  PM----------------------------------------
|-------------------------------------------|
|-------------------------------------------|
|-------------------------------------------|
|------4-----4-------4---------4--------4---|
|--5-5---5-5---5-5------5-5------5-5------5-|
|-------------------------------------------|


  C#                                  C
|-----------------------------------|----------------------------------------||
|------------------14---------------|----------------------------------------||
|-----------------------------------|-------------------------9-------12-----||
|-11--------------------------------|-8---------------(8)--------------------||
|-----------------------------------|----------------------------------------||
|-----------------------------------|----------------------------------------||
|
|--------------------------------------------------------------------------|
|-----------------------------------|----------------------------------------||
|-----------------------------------|----------------------------------------||
|-----------------------------------|----------------------------------------||
|------3-----3------3-----3-----3---|-----2-----2------2--------2--------2---||
|--4-4---4-4---4-4----4-4---4-4---4-|-3-3---3-3---3-3-----3-3-----3-3------3-||
|-----------------------------------|----------------------------------------||


  Bb                                 B
|----------------------------------|--------------------------------------|
|-----------------11---------------|-7-7-10-7-7-10-7-7-10-7-7-10-7-7-10-7-|
|----------------------------------|--------------------------------------|
|-8--------------------------------|--------------------------------------|
|----------------------------------|--------------------------------------|
|----------------------------------|--------------------------------------|
|
| PM-----------------------------|
|----------------------------------|--------------------------------------|
|----------------------------------|--------------------------------------|
|----------------------------------|-8-8-11-8-8-11-8-8-11-8-8-11-8-8-11-8-|
|----------------------------------|--------------------------------------|
|-1-1-5-1-1-5-1-1--5-1-1-5-1-1-5-1-|--------------------------------------|
|----------------------------------|--------------------------------------|


  C
|--------------------------------------|
|-8-8-12-8-8-12-8-8-12-8-8-12-8-8-12-8-|
|--------------------------------------|
|--------------------------------------|
|--------------------------------------|
|--------------------------------------|
|
|--------------------------------------|
|--------------------------------------|
|-9-9-12-9-9-12-9-9-12-9-9-12-9-9-12-9-|
|--------------------------------------|
|--------------------------------------|
|--------------------------------------|


  B
|-------------------------------------------------|
|-10-10-13-10-10-13-10-10-13-10-10-13-10-10-13-10-|
|-------------------------------------------------|
|-------------------------------------------------|
|-------------------------------------------------|
|-------------------------------------------------|
|
|-------------------------------------------------|
|-------------------------------------------------|
|-11-11-14-11-11-14-11-11-14-11-11-14-11-11-14-11-|
|-------------------------------------------------|
|-------------------------------------------------|
|-------------------------------------------------|


  Em                                                B
|-------------------------------------------------|-------------------------------------------------|
|-12-12-15-12-12-15-12-12-15-12-12-15-12-12-15-12-|-13-13-17-13-13-17-13-13-17-13-13-17-13-13-17-13-|
|-------------------------------------------------|-------------------------------------------------|
|-------------------------------------------------|-------------------------------------------------|
|-------------------------------------------------|-------------------------------------------------|
|-------------------------------------------------|-------------------------------------------------|
|
|-------------------------------------------------|-------------------------------------------------|
|-------------------------------------------------|-------------------------------------------------|
|-12-12-16-12-12-16-12-12-16-12-12-16-12-12-16-12-|-14-14-17-14-14-17-14-14-17-14-14-17-14-14-17-14-|
|-------------------------------------------------|-------------------------------------------------|
|-------------------------------------------------|-------------------------------------------------|
|-------------------------------------------------|-------------------------------------------------|


  C
|-------------------------------------------------|
|-15-15-19-15-15-19-15-15-19-15-15-19-15-15-19-15-|
|-------------------------------------------------|
|-------------------------------------------------|
|-------------------------------------------------|
|-------------------------------------------------|
|
|-------------------------------------------------|
|-12-12-15-12-12-15-12-12-15-12-12-15-12-12-15-12-|
|-------------------------------------------------|
|-------------------------------------------------|
|-------------------------------------------------|
|-------------------------------------------------|


  Am                                                B
                                                                             ~~~
|-------------------------------------------------|-19---------------------------|
|-17-17-20-17-17-20-17-17-20-17-17-20-17-17-20-17-|----19------------------------|
|-------------------------------------------------|-------------20---------------|
|-------------------------------------------------|----------------21------------|
|-------------------------------------------------|-------------------21-18-21---|
|-------------------------------------------------|------------------------------|
|
|-------------------------------------------------|-14-11h14-11------------------|
|-13-13-17-13-13-17-13-13-17-13-13-17-13-13-17-13-|-------------12---------------|
|-------------------------------------------------|----------------11------------|
|-------------------------------------------------|-------------------13---------|
|-------------------------------------------------|----------------------14------|
|-------------------------------------------------|--------------------------x\--|


  Am
|---------------------------------------------------|
|-10----------------------------------12----(12)----|
|---------------------------------------------------|
|---------------------------------------------------|
|---------------------------------------------------|
|---------------------------------------------------|
|
|---------------------------------------------------|
|-13-10-10-13-10-10-13-10-10-13-10-10-13-10--10--10-|
|---------------------------------------------------|
|---------------------------------------------------|
|---------------------------------------------------|
|---------------------------------------------------|


  Em                                        B
|-----------------------------------------|---------------------------------------|
|-(12)--------------------------10--------|----------------------------------10---|
|------------------------------------12---|-11--------------------------12--------|
|-----------------------------------------|---------------------------------------|
|-----------------------------------------|---------------------------------------|
|-----------------------------------------|---------------------------------------|
|
|-----------------------------------------|---------------------------------------|
|--12--8-8-12-8-8-12-8-8-12-8-8-12-8--8-8-|-10-7-7-10-7-7-10-7-7-10-7-7-10-7--7-7-|
|-----------------------------------------|---------------------------------------|
|-----------------------------------------|---------------------------------------|
|-----------------------------------------|---------------------------------------|
|-----------------------------------------|---------------------------------------|


  Em                                       Am
|-12-10----------10-12-------------------|-------------------------------------------------|
|-------12p10-12-------12p10-12-12p10-12-|-10----------------------------------12----13----|
|----------------------------------------|-------------------------------------------------|
|----------------------------------------|-------------------------------------------------|
|----------------------------------------|-------------------------------------------------|
|----------------------------------------|-------------------------------------------------|
|
|----------------------------------------|-------------------------------------------------|
|--8--7-----------8--7-------------------|-13-10-10-13-10-10-13-10-10-13-10-10-13-10-10-10-|
|--------9p=8--9--------9p=8--9--9p=8--9-|-------------------------------------------------|
|----------------------------------------|-------------------------------------------------|
|----------------------------------------|-------------------------------------------------|
|----------------------------------------|-------------------------------------------------|


  C
|--------------------------------------------------------|
|-13-(13)----------------------------------16------------|
|--------------------------------------------------------|
|--------------------------------------------------------|
|--------------------------------------------------------|
|--------------------------------------------------------|
|
|--------------------------------------------------------|
|-----17--13-13-17-13-13-17-13-13-17-13-13-17-13-13-13---|
|--------------------------------------------------------|
|--------------------------------------------------------|
|--------------------------------------------------------|
|--------------------------------------------------------|


  B
                                                          ~~~~
|-----------------------------------------------|----17-(17)-----------------||
|-(16)----------------(16)------16-17-16--------|----------------------------||
|------------------------------------------17---|-14-------------------------||
|-----------------------------------------------|----------------------------||
|-----------------------------------------------|----------------------------||
|-----------------------------------------------|----------------------------||
|
|-----------------------------------------------|----------------------------||
|--16--13h16p13s10-13--10h13p10s=7-10----7h10p7-|--4--7---4h7p4-1-4-1h4p1----||
|-----------------------------------------------|-------------------------4--||
|-----------------------------------------------|----------------------------||
|-----------------------------------------------|----------------------------||
|-----------------------------------------------|----------------------------||


  F               C              E
   ~~              ~~     ~~
|---------------|--------------|---------------|
|-----------10--|--------------|---------------|
|-10----12------|-12---9-------|-9-------------|
|---------------|--------10----|----12--10--9--|
|---------------|--------------|---------------|
|---------------|--------------|---------------|
|
|  ~~              ~~     ~~
|---------------|--------------|---------------|
|---------------|--------------|---------------|
|------------2--|--------------|---------------|
|--3-----5------|--5---2-------|-2-------------|
|---------------|---------3----|-----5---3--2--|
|---------------|--------------|---------------|


  Am
|-------------12-11-12-10-12--8-12----12-10-12---|
|-------10-13----------------------12------------|
|-----9------------------------------------------|
|-10---------------------------------------------|
|------------------------------------------------|
|------------------------------------------------|
|
|----------12-15-14-15-13-15-12-15----15-13-15---|
|-------13-------------------------15------------|
|----12------------------------------------------|
|-14---------------------------------------------|
|------------------------------------------------|
|------------------------------------------------|


  F               C                E
   ~~~~~~~~~~~~~~~~~~~~~~~~~~~~~~~~~~~~~~
|---------------|--------------||--12-12-13-12-12-16-12-12-17-12-12-16-12-12-13-12--||
|-----------10--|--------------||o-------------------------------------------------o||
|-10----12------|-12---9-------||---------------------------------------------------||
|---------------|--------10----||---------------------------------------------------||
|---------------|--------------||o-------------------------------------------------o||
|---------------|--------------||---------------------------------------------------||
|
|  ~~~~~~~~~~~~~~~~~~~~~~~~~
|---------------|--------------||---------------------------------------------------||
|---------------|--------------||o--0--0--1--0--0--3--0--0--3--0--0--3--0--0--1--0-o||
|------------2--|--------------||---------------------------------------------------||
|--3-----5------|--5---2-------||---------------------------------------------------||
|---------------|---------3----||o-------------------------------------------------o||
|---------------|--------------||---------------------------------------------------||


  F               C
   ~~                       ~~~~
|-17----19--20--|-20--------------|
|---------------|------20-(20)----|
|---------------|-----------------|
|---------------|-----------------|
|---------------|-----------------|
|---------------|-----------------|
|
|  ~~
|------------5--|-----------------|
|--6-----8------|--8----5---------|
|---------------|-----------5-----|
|---------------|-----------------|
|---------------|-----------------|
|---------------|-----------------|


  E
|-------------------------------------------|
|-------------------------------------------|
|-12h14p12h14-10h12p10h12-9h10p9h10-7h9p7h9-|
|-------------------------------------------|
|-------------------------------------------|
|-------------------------------------------|
|
|--8h10p=8h10--7h=8p=7h=8-5h=7p5h=7-3h5p3h5-|
|-------------------------------------------|
|-------------------------------------------|
|-------------------------------------------|
|-------------------------------------------|
|-------------------------------------------|


  F              Dm               Am
   ~~             ~~~                  ~~~~    ~~~
|--------------|----------------|--------------------|
|--------------|------------10--|--------------------|
|--------------|-10-----12------|-12-(12)---9--------|
|-10----10-9-7-|----------------|-------------10-----|
|--------------|----------------|--------------------|
|--------------|----------------|--------------------|
|
|  ~~                                  ~~~~
|--------------|----------------|--------------------|
|--6-----6-5-3-|---------5---6--|------5-------------|
|--------------|--9s==4---------|-----------5--------|
|--------------|----------------|--------------7\----|
|--------------|----------------|--------------------|
|--------------|----------------|--------------------|


  E
|--------------------------------------10p7-|-10p7-----------13p10----------------|
|------------------12p9-12p9---------9------|------9----9-12-------15-(15)---(15)-|
|-13p10---------10-----------10-7-10--------|--------10---------------------------|
|-------12-9-12-----------------------------|-------------------------------------|
|-------------------------------------------|-------------------------------------|
|-------------------------------------------|-------------------------------------|
|
|--4p=1----------1--4p1--7p4---------4--7p4-|-10p7---------7-10p=7-10-(10)---(10)-|
|--------3----3---------------6----6--------|------9----9-------------------------|
|----------4--------------------7-----------|--------10---------------------------|
|-------------------------------------------|-------------------------------------|
|-------------------------------------------|-------------------------------------|
|-------------------------------------------|-------------------------------------|


    Am
||-----------13-15p13----------17-15p13-15p13--------||
||o-13h15-17----------17-15-13----------------17-15-o||
||---------------------------------------------------||
||---------------------------------------------------||
||o-------------------------------------------------o||
||---------------------------------------------------||
|
||-----------10-12-10----------13-12-10-12-10--------||
||o-10-12-13----------13-12-10----------------13-12-o||
||---------------------------------------------------||
||---------------------------------------------------||
||o-------------------------------------------------o||
||---------------------------------------------------||


    G
||-----------12-13p12----------15-13p12-13p12--------||
||o-12h13-15----------15-13-12----------------15-13-o||
||---------------------------------------------------||
||---------------------------------------------------||
||o-------------------------------------------------o||
||---------------------------------------------------||
|
||--------------10-------------12-10----10-----------||
||o----10-12-13----13-12-10----------13----13-12-10-o||
||--12----------------------12-----------------------||
||---------------------------------------------------||
||o-------------------------------------------------o||
||---------------------------------------------------||


      C
|-||-----15-13p12-13p12----12--------------------------||
|-||o-13----------------15----15-13-15-13-12-13-12----o||
|-||-----------------------------------------------14--||
|-||---------------------------------------------------||
|-||o-------------------------------------------------o||
|-||---------------------------------------------------||
|
|-||-----12-10----10-----------------------------------||
|-||o----------13----13-12-13-12-10-12-10----10-------o||
|-||--12----------------------------------12----12-10--||
|-||---------------------------------------------------||
|-||o-------------------------------------------------o||
|-||---------------------------------------------------||


  C                                                 E
|-------------------------------------------------|-------------------------------------------|
|-12----------------------------------------------|----------------------12-------12-------12-|
|----14-12-14-12----12----------------------------|-------------------13-------13-------13----|
|----------------15----15-14-15-14-12-14-12----12-|----12-15----12-15-------15-------15-------|
|-------------------------------------------15----|-14-------14-------------------------------|
|-------------------------------------------------|-------------------------------------------|
|
|-------------------------------------------------|-------------------------------------------|
|-------------------------------------------------|-----------------------9--------9--------9-|
|-12-10--9-10--9-----9----------------------------|-------------------10-------10-------10----|
|----------------12----12-10-12-10--9-10--9-----9-|-----9-12-----9-12-------12-------12-------|
|-------------------------------------------12----|-11-------11-------------------------------|
|-------------------------------------------------|-------------------------------------------|


|-16-13----------------------------------13-16s19---|
|-------15-------------12-15-12----12-15------------|
|-------------13----13----------13------------------|
|----------------15---------------------------------|
|---------------------------------------------------|
|---------------------------------------------------|
|
|-------------------------------------------13-16---|
|-15-------12-------------12----------12-15---------|
|----------------------13----13----13---------------|
|-------------15-12-15----------15------------------|
|---------------------------------------------------|
|---------------------------------------------------|


  Am
|-(19)----------------------------------------------|-------------------------------------------------|
|------13-15p13----13-15p13-17-13-15p13----13-15p13-|-17-13-15p13----13-15p13-17-13-15p13----13-15p13-|
|---------------14----------------------14----------|-------------14----------------------14----------|
|---------------------------------------------------|-------------------------------------------------|
|---------------------------------------------------|-------------------------------------------------|
|---------------------------------------------------|-------------------------------------------------|
|
|--17--12-13-12----12-13-12-17-12-13-12----12-13-12-|-17-12-13-12----12-13-12-17-12-13-12----12-13-12-|
|---------------13----------------------13----------|-------------13----------------------13----------|
|---------------------------------------------------|-------------------------------------------------|
|---------------------------------------------------|-------------------------------------------------|
|---------------------------------------------------|-------------------------------------------------|
|---------------------------------------------------|-------------------------------------------------|


    G
||---------------------------------------------------||
||o-15p12-13p12----12-13p12-15p12-13p12----12-13p12-o||
||--------------12----------------------12-----------||
||---------------------------------------------------||
||o-------------------------------------------------o||
||---------------------------------------------------||
|
||--15-10-12-10----10-12-10-15-10-12-10----10-12-10--||
||o-------------12----------------------12----------o||
||---------------------------------------------------||
||---------------------------------------------------||
||o-------------------------------------------------o||
||---------------------------------------------------||


  C
                                                                       ~~
|-12-------------12----------------12-------|-------------------------------|
|----13-------------13----------13----13----|-------13----------------------|
|-------12----12-------12----12----------12-|----12----14-12----------------|
|----------14-------------14----------------|-14-------------14-12----12----|
|-------------------------------------------|----------------------15-------|
|-------------------------------------------|-------------------------------|
|
|                                                                      ~~
|-15-12----------15-12----------12-15-12----|-------15-12-------------------|
|-------13----13-------13----13----------13-|----13-------13----------------|
|----------12-------------12----------------|-12-------------12-------------|
|-------------------------------------------|-------------------14----------|
|-------------------------------------------|----------------------15-------|
|-------------------------------------------|-------------------------12----|


  E
|----------------------------------------------13-|
|----------------------12-------12-------12-15----|
|-------10-------10-13----10-13----10-13----------|
|--9-12-----9-12----------------------------------|
|-------------------------------------------------|
|-------------------------------------------------|
|
|-------------------------------------------------|
|-------------------------------------------12-15-|
|----------------------13-------13-------13-------|
|-------12-------12-15----12-15----12-15----------|
|-11-14----11-14----------------------------------|
|-------------------------------------------------|


  E
|-16-13----------------------------------------19-|
|-------15----------------15-------------18-21----|
|----------16-13----13-16----16----16-19----------|
|----------------15-------------18----------------|
|-------------------------------------------------|
|-------------------------------------------------|
|
|-13----------------------------------------13-16-|
|----15-12----------------12----------12-15-------|
|----------13----------13----13----13-------------|
|-------------15-12-15----------15----------------|
|-------------------------------------------------|
|-------------------------------------------------|


  Bb               Am
       ~~~~                                      ~~
|-19-(19)--------|----20-17----------|----------------|
|----------------|-17-------17-13----|----------------|
|----------------|----------------14-|----------------|
|----------------|-------------------|-14-------------|
|----------------|-------------------|----15-12-------|
|----------------|-------------------|----------12----|
|
|      ~~~~                                      ~~
|-14-(14)--------|-12-17-12----------|----------------|
|----------------|----------13-10----|----------------|
|----------------|-----------------9-|----------------|
|----------------|-------------------|-10--7----------|
|----------------|-------------------|--------7-------|
|----------------|-------------------|-----------8----|


  Am
                       ~~
|-------------------|---------------------|
|-------------------|-----------12--------|
|-------------------|-14-------------14---|
|-14-----------15---|---------------------|
|-------------------|---------------------|
|-------------------|---------------------|
|
|---------------5-8-|-12-8----------------|
|------------5------|------10-------------|
|----------5--------|---------9-----------|
|--------7----------|-----------10-7------|
|------7------------|-----------------7---|
|--5-8--------------|-------------------8-|


                             ~~
|-------------------------|----------------------|
|-15-(15)-----------17-17-|-17--------17---18----|
|-------------------------|----------------------|
|-------------------------|----------------------|
|-------------------------|----------------------|
|-------------------------|----------------------|
|
|--------------------5--8-|-12-8-----------------|
|-----------------5-------|------10--------------|
|---------------5---------|---------9------------|
|-------------7-----------|-----------10-7-------|
|-----------7-------------|-----------------7----|
|------5--8---------------|-------------------8--|


  Am
|-----------------------------|-------------------------------------------|
|-18h22-------(22)-22-22---22-|-18----------------22-------18-22----18----|
|-----------------------------|-------------------------------------------|
|-----------------------------|-------------------------------------------|
|-----------------------------|-------------------------------------------|
|-----------------------------|-------------------------------------------|
|
|------------------------5--8s|=17-12----------------------------------12-|
|----------------------5------|-------13-------------------------13-------|
|---------------5-------------|----------14----------------14-------------|
|-----------7-----------------|-------------14----------14----------------|
|---------7-------------------|----------------15-12-15-------------------|
|-----5-8---------------------|-------------------------------------------|


   ~~
|--------------------|---------------------------------------------|
|-17-----------/13---|-12-------------------12--------13-----------|
|--------------------|------------14-------------------------------|
|--------------------|---------------------------------------------|
|--------------------|---------------------------------------------|
|--------------------|---------------------------------------------|
|
|----------------5-8-|-12-10-8-------------------------------------|
|------------5-------|---------12-10-8-----------------------------|
|----------5---------|-----------------10-9--7---------------------|
|--------7-----------|-------------------------10-9-7--------------|
|------7-------------|--------------------------------10-8-7-------|
|--5-8---------------|---------------------------------------10----|


  Bm7b5
   ~~
|--------------------|-------------13-------17----|
|-12------------15---|-(15)-----------------------|
|--------------------|----------------------------|
|--------------------|----------------------------|
|--------------------|----------------------------|
|--------------------|----------------------------|
|
|--------------------|----------------------------|
|--------------------|----------------------------|
|----------------7-9-|--10--9h10p9--7-------------|
|-----------7-9------|----------------9-7---------|
|-------7-8----------|--------------------8--7----|
|--7-10--------------|-------------------------10-|


                                               ~~
|-(17)---19---(19)-17-------|----------------------|
|---------------------18-15-|-------12-----15------|
|---------------------------|-16s14----14-----14---|
|---------------------------|----------------------|
|---------------------------|----------------------|
|---------------------------|----------------------|
|
|                                              ~~
|---------------------------|----------------------|
|---------------------------|-------------/13-10---|
|-------------------------7-|--9-10--9-10----------|
|-------------------7--9----|----------------------|
|------7--8-7---8-----------|----------------------|
|---7-----------------------|----------------------|


    Bm7b5
        ~~
|--------------------|----------------------17----|
|------12-------15---|-(15)--------18-------------|
|--------------------|----------------------------|
|--------------------|----------------------------|
|--------------------|----------------------------|
|--------------------|----------------------------|
|
|--------------------|----------------------------|
|--------------------|----------------------------|
|----------------7-9-|--10--9h10p9--7-------------|
|-----------7-9------|----------------9-7---------|
|-------7-8----------|--------------------8--7----|
|-7-10---------------|-------------------------10-|


   ~~                                  ~~                 ~~~
|-19---17h19p==17-------------------|-----------------------------|
|-----------------18----------------|-----------------------------|
|--------------------19-16h19p16----|-16----14h16p14--------------|
|--------------------------------19-|----------------15-----------|
|-----------------------------------|--------------------17-------|
|-----------------------------------|-----------------------------|
|
|                                                            ~~
|-----------------------------------|-----------------------------|
|-----------------------------------|-------------------/13-10----|
|---------------------------------7-|--9-10--9-------10-----------|
|---------------------7--9----------|-----------------------------|
|----7--8----7-----8----------------|-----------------------------|
|--7--------------------------------|-----------------------------|


  Am
|-------------------|---------------------|
|-------------------|-----------12---13---|
|-------------------|-14------------------|
|-14-----------15---|---------------------|
|-------------------|---------------------|
|-------------------|---------------------|
|
|---------------5-8-|-12-8----------------|
|------------5------|------10-------------|
|----------5--------|---------9-----------|
|--------7----------|-----------10-7------|
|------7------------|-----------------7---|
|--5-8--------------|-------------------8-|


   ~~                     ~~
|-12-----------12-(12)-|-12--------12---13---|
|----------------------|---------------------|
|----------------------|---------------------|
|----------------------|---------------------|
|----------------------|---------------------|
|----------------------|---------------------|
|
|---------------5---8--|-12-8----------------|
|------------5---------|------10-------------|
|----------5-----------|---------9-----------|
|--------7-------------|-----------10-7------|
|------7---------------|-----------------7---|
|--5-8-----------------|-------------------8-|


  Am
      ~~                   ~~
|-13s17-----------19-17-|-13----------------17-------13-17-13-|
|-----------------------|-------------------------------------|
|-----------------------|-------------------------------------|
|-----------------------|-------------------------------------|
|-----------------------|-------------------------------------|
|-----------------------|-------------------------------------|
|
|------------------5--8s|=17-12----------------------------12-|
|---------------5-------|-------13----------------------13----|
|-------------5---------|----------14----------------14-------|
|-----------7-----------|-------------14----------14----------|
|---------7-------------|----------------15-12-15-------------|
|-----5-8---------------|-------------------------------------|


   ~~
|-------------------|--------------------------------------------|
|-17-----------13---|-12-------------------12--------------------|
|-------------------|------------14------------------------------|
|-------------------|--------------------------------------------|
|-------------------|--------------------------------------------|
|-------------------|--------------------------------------------|
|
|---------------5s8-|-12-10-8------------------------------------|
|------------5------|---------12-10-8----------------------------|
|----------5--------|-----------------10-9--7--------------------|
|--------7----------|-------------------------10-9-7-------------|
|------7------------|--------------------------------10-8-7------|
|--5-8--------------|---------------------------------------10---|


  A             Eb     A                    E
       ~~~~
|--------------------|---------------------------------12-|
|-14-(14)------------|-14-(14)-----12h15p12------12-14----|
|--------------------|----------------------15------------|
|--------------------|------------------------------------|
|--------------------|------------------------------------|
|--------------------|------------------------------------|
|
|--------------------|------------------------------------|
|--------------------|------------------------------------|
|--------------------|------------------------------------|
|---------------2----|-----------------------2------------|
|------0--x-x-x-0----|------0--x-x--x--------2------------|
|--------------------|-----------------------0------------|


  A                    Eb         A                 E
                        ~~
|-15-12-------------------------|---------------------------|
|-------14-11-------14----------|---------------------------|
|-------------12-------12-------|-11p10h11p10h11p10p9---/x--|
|----------------14-----------8-|---------------------------|
|--------------------------10---|---------------------------|
|-------------------------------|---------------------------|
|
|-------------------------------|---------------------------|
|-------------------------------|---------------------------|
|-------------------------------|---------------------------|
|-----------------------2-------|-------------------2-------|
|--0-----x-----x-----x--0-------|--0--x--x--x-------2-------|
|-------------------------------|-------------------0-------|


  E                                                         Bb
                                                            ~
|-------7-12-7------------------------|-------------------------19-|
|---7-8--------8-7------7-------------|----------------------------|
|-9----------------9------9---------9-|----------------------------|
|--------------------10-----10-9-10---|-10-9------10-9-------------|
|-------------------------------------|------10-9------10-9-7------|
|-------------------------------------|----------------------------|
|
|-------------------------------------|----------------------------|
|-------------------------------------|----------------------------|
|-------------------------------------|----------------------------|
|-------------------------------------|----------------------------|
|-------------------------------------|---------------------8------|
|-0---x----x---x---0----x----x----x---|--0----x----x----x---6------|


  E
|-19-15---------18---14------------------------|
|---------17-15---------15-13---------15-------|
|-------------------------------14---------15--|
|----------------------------------15----------|
|----------------------------------------------|
|----------------------------------------------|
|
|----------------------------------------------|
|----------------------------------------------|
|----------------------------------------------|
|----------------------------------------------|
|----------------------------------------------|
|--0----x-----x----x-----0----x-----x----x-----|


  E          Bb          E
              ~~~~~~~~~~~~~~
|----------------------|---------------------------------------|
|----------------------|--------------17-10h17p10--------------|
|-12---------14--------|-12---12-14---------------12-9-12---11-|
|----14----------------|---------------------------------------|
|---------15-----------|---------------------------------------|
|----------------------|---------------------------------------|
|
|----------------------|---------------------------------------|
|----------------------|---------------------------------------|
|----------------------|---------------------------------------|
|----------------------|---------------------------------------|
|-----------------8----|---------------------------------------|
|--0----x-----x-x-6----|--0-x--x----x-----0-----x----x----x----|


                      Bb
                         ~
|-----------------------------|
|-----------------------------|
|--------11-10--------10-9----|
|-12-----------11-------------|
|----9--------------8---------|
|-----------------------------|
|
|-----------------------------|
|-----------------------------|
|-----------------------------|
|-----------------------------|
|----------------------6------|
|--0---x-----x----x----8------|


    E
|---12----15-15---------------------------------12-|
|------14-------15---------------13-15----11-14----|
|------------------12-0-9-6---12-------12----------|
|--------------------------------------------------|
|--------------------------------------------------|
|--------------------------------------------------|
|
|--------------------------------------------------|
|--------------------------------------------------|
|--------------------------------------------------|
|--------------------------------------------------|
|--------------------------------------------------|
|-0-----x-----x-------x-----0-----x-----x--x-------|


  A                             E                 F
                               5/4
                       ~~
|-15s21-15----22-(22)-21----||------------------------|
|----------17---------------||o-----------------------|
|---------------------------||------------------------|
|---------------------------||------------------------|
|---------------------------||o-----------------------|
|---------------------------||------------------------|
|
|---------------------------||------------------------|
|---------------------------||o-----------------------|
|---------------------------||------------------------|
|---------------------------||--2-----------------3---|
|----------------------7----||o-2-----------------3---|
|--0-----x-----x---x---5----||--0--x-x-x-x--x-x-x-1---|


  E                 Eb   E                 F    E F#EbF Eb
                                               5/8
|----------------------|----------------------|------------||
|----------------------|----------------------|-----------o||
|----------------------|----------------------|------------||
|----------------------|----------------------|------------||
|----------------------|----------------------|-----------o||
|----------------------|----------------------|------------||
|
|----------------------|----------------------|------------||
|----------------------|----------------------|-----------o||
|----------------------|----------------------|------------||
|-2-----------------8--|-2-----------------3--|-2-4-1-3-1--||
|-2-----------------6--|-2-----------------3--|-2-4-1-3-1-o||
|-0--x-x-x-x--x-x-x----|-0--x-x-x-x--x-x-x-1--|------------||


Tablature Legend
----------------
 h   - hammer-on
 p   - pull-off
 b   - bend
 pb  - pre-bend
 r   - bend release (if no number after the r, then release immediately)
 /\  - slide into or out of (from/to "nowhere")
 s   - legato slide
 S   - shift slide
  - natural harmonic
[n]  - artificial harmonic
n(n) - tapped harmonic
 ~   - vibrato
 tr  - trill
 T   - tap
 TP  - trem. picking
 PM  - palm muting
\n/  - tremolo bar dip; n = amount to dip
 \n  - tremolo bar down
 n/  - tremolo bar up
/n\  - tremolo bar inverted dip
 =   - hold bend; also acts as connecting device for hammers/pulls
   - volume swell (louder/softer)
 x   - on rhythm slash represents muted slash
 o   - on rhythm slash represents single note slash

Misc Legend
-----------
 |  - bar
||  - double bar
||o - repeat start
o|| - repeat end
*|  - double bar (ending)
 :  - bar (freetime)
 $  - Segno
 &  - Coda
Tempo markers -  = BPM(8/16=s8/s16), where s8 = swing 8ths, s16 = swing 16ths
Get this song at:
bol.com
amazon.com

Copyrights:

Author: ?

Composer: ?

Publisher: Shrapnel Records, Inc.

Details:

Released in: 1987

Language: English

Share your thoughts

This form is protected by reCAPTCHA and the Google Privacy Policy and Terms of Service apply.

0 Comments found