American Head Charge

American Head Charge - Americunt guitar tab

Your rating:
BITCHIN' TABS

          URL: www.angelfire.com/goth/btab/
	EMAIL: btabmaster@hotmail.com

        THIS IS AN EXCLUSIVE TAB TO "BITCHIN' TABS"

 ----------------------------------------------------------------------------------------------

	     SONG: Americunt
	     BAND: American Head Charge
	    ALBUM: The War of Art
   TRANSCRIBED BY: Chris Frazier (btabmaster@hotmail.com)
	     DATE: 10-29-2K1

 ----------------------------------------------------------------------------------------------

	TUNING: Drop D and down 1/2 steps (Db Ab Db Gb Bb Eb)

      Riff 1:
    Eb|------------------------------------------|
    Bb|------------------------------------------|
    Gb|------------------------------------------| PM=palm mute
    Db|-1-0----1-0----1-1-0----1-0---------------|
    Ab|-1-0----1-0----1-1-0----1-0---------------|
    Db|-1-0----1-0----1-1-0----1-0-pick-slide--0-|
     PM   -      -    -   -      -             -

      Riff 2:
    Eb|---------------------------|
    Bb|---------------------------|
    Gb|---------------------------| p=pull off
    Db|-1p0-0-1p0-0-1p0-0-1p0-1p0-|
    Ab|-1p0-0-1p0-0-1p0-0-1p0-1p0-|
    Db|-1p0-0-1p0-0-1p0-0-1p0-1p0-|

      Riff 3:
    Eb|-----------------------------|
    Bb|-----------------------------|
    Gb|-----------------------------| /=slide
    Db|-1p0-0-1p0-0----0-1-0-1p0----|
    Ab|-1p0-0-1p0-0-/5-0-1-0-1p0-/5-|
    Db|-1p0-0-1p0-0----0-1-0-1p0----|

      Riff 4:
    Eb|-------------|
    Bb|-------------|
    Gb|-------------| x=mute
    Db|-1p0-x-x-x-x-|
    Ab|-1p0-x-x-x-x-|
    Db|-1p0-x-x-x-x-|
     PM   -

      Riff 5:
    Eb|---------------------|
    Bb|---------------------|
    Gb|---------------------| ( )=played last time
    Db|-0-1p0-1p0-(x-x-x-x)-|
    Ab|-0-1p0-1p0-(x-x-x-x)-|
    Db|-0-1p0-1p0-(x-x-x-x)-|

      Riff 6:
    Eb|-----------------|
    Bb|-----------------|
    Gb|-----------------|
    Db|-0-1-----0-1-----|
    Ab|-0-1-/5--0-1-/5--|
    Db|-0-1-----0-1-----|

      Riff 7:
    Eb|-----------------------------|
    Bb|-----------------------------|
    Gb|-----------------------------|
    Db|-1-0---1-0---1-0---1-0---(1)-|
    Ab|-1-0---1-0---1-0---1-0---(1)-|
    Db|-1-0---1-0---1-0---1-0---(1)-|
     PM   -     -     -     -    -
Get this song at:
bol.com
amazon.com

Copyrights:

Author: ?

Composer: ?

Publisher: ?

Details:

Language: English

Share your thoughts

This form is protected by reCAPTCHA and the Google Privacy Policy and Terms of Service apply.

0 Comments found