America

America - The Last Unicorn bass tab

Your rating:
Artist: America
Song:   The Last Unicorn

Tuning: Standart (E A D G)

Tabbed by R4Z0R


Intro

G|--------------|
D|-----REST-----|
A|--------------|
E|--------------|


Verse

G|-------------------------------------|
D|-------------------------------------|
A|-3---3-------------1-3---3-----------|
E|---------4---4---4-----------4---4---|


Bridge

G|--------------------------------------------------------|
D|--------------------------------------------------------|
A|-3-------------8-6-4------------------------------------|
E|-----3---4---3-------3--1--1--3--3--3-4--4--4-6--6--6-6-|


Verse2

G|---------------------------------------------------------------|
D|---------------------------------------------------------------|
A|-3--3--3-3--3------------------3--3--3-3--3--------------------|
E|---------------3-4--4--4-4--4----------------3-4--4--6-4--4--6-|


Bridge2

G|--------------------------------------------------------------|
D|--------------------------------------------------------------|
A|-3--3--3------------------------------------------------------|
E|---------3--3--3-4--4--4-3--3--3--1-1-3--3--3-4--4--4-6--6--6-|


Refrain

G|-------------------------|
D|-------------------------|
A|-6--6--6-5-3--3----------|
E|-----------------3--4--6-|


Interlude

G|--------------------------------|
D|--------------------------------|
A|-3--3--3------------------------|
E|---------3--3--3-4--4--4-6--6---|


Verse3

G|-----------------------------------------------------------------|
D|-----------------------------------------------------------------|
A|-3--3----3--3--------------------3--3----3--3--------------------|
E|-------3-------3-4--4--6-4--4--6-------3-------3-4--4--6-4--4--6-|


Bridge3

G|--------------------------------------------------------------|
D|--------------------------------------------------------------|
A|-3--3--3------------------------------------------------------|
E|---------3--3--3-4--4--4-3--3--3--1-1-3--3--3-4--4--4-6--6--6-|


Refrain

G|-------------------------|
D|-------------------------|
A|-6--6--6-5-3--3----------|
E|-----------------3--4--6-|


Outro -> Interlude


That's it! Enjoy!
Get this song at:
bol.com
amazon.com

Copyrights:

Author: ?

Composer: ?

Publisher: ?

Details:

Language: English

Appearing on: Highway: 30 Years of America (2000)

Share your thoughts

This form is protected by reCAPTCHA and the Google Privacy Policy and Terms of Service apply.

0 Comments found