Aaron Lewis

Aaron Lewis - Outside Ver 7 guitar tab

Your rating:
Artist: Aaron Lewis of Staind feat. Fred Durst of Limp Bizkit
Song: Outside
Transcribed By: Daniel (Chick Magnet)
mxpxpunk1@hotmail.com

He plays this song downtuned so I transcribed it for standard tuning.
Although this isn't the correct way to play it, it sounds extrememely close.
e------------------------------------------
B------------------------------------------
G---8---------8---------8-----8---8----
D---8---------8---------8-----8---8----
A---6---------6---------6-----6---6----
E------------------------------------------

e------------------------------------------
B------------------------------------------
G---6--------6----------6-----6---6----
D---6--------6----------6-----6---6----
A---4--------4----------4-----4---4----
E------------------------------------------

e------------------------------------------
B------------------------------------------
G------------------------------------------
D---4---------4----------4-----4---4----
A---4---------4----------4-----4---4----
E---2---------2----------2-----2---2----

e-------------------------------------------
B------------------------------------------
G------------------------------------------
D---6---------6----------6-----6---6----
A---6---------6----------6-----6---6----
E---4---------4----------4-----4---4----

Listen to the song to figure out the timing and strumming patterns of the Chorus.
e---0----3----2----------
B---0----0----3----0----
G---0----0----2----2----
D---2----0----0----2----
A---2----2---------0----
E---0----3--------------
Get this song at:
bol.com
amazon.com

Copyrights:

Author: ?

Composer: ?

Publisher: ?

Details:

Language: English

Share your thoughts

This form is protected by reCAPTCHA and the Google Privacy Policy and Terms of Service apply.

0 Comments found