Aaron Lewis

Aaron Lewis - Outside-standard Tuning guitar tab

Your rating:
Tabbed By: PimpDaddyKABZ
Song: Outside
Aaron Lewis and Fred Durst

This version sounds pretty good and accurate on Eb tuning.I have modified my tab
Everyones strumming of the song varies, listen to it to decide how u like it.

Tuning:
(Eb Ab Db Gb Bb Eb) low to high

Intro/Verses:

eb--------------------
Bb--------------------
Gb--9--x--7-----------
Db--9--x--7---5--x--7-
Ab--7--x--5---5--x--7-
Eb------------3--x--5-

Chorus:

   Em   Gm  D   Asus2

eb--0---3---2---0--
Bb--0---3---3---0--
Gb--0---0---2---2--
Db--2---0---0---2--
Ab--2---x---0---0--
Eb--0---3----------

Thats how I like to play it, i think we gotta consult aaron lewis for the EXACT way to play it.
Get this song at:
bol.com
amazon.com

Copyrights:

Author: ?

Composer: ?

Publisher: ?

Details:

Language: English

Share your thoughts

This form is protected by reCAPTCHA and the Google Privacy Policy and Terms of Service apply.

0 Comments found