88 Fingers Louie

88 Fingers Louie - Tomorrow Starts Today bass tab

Your rating:
-------------------------------------------------------------------------------
TOMORROW STARTS TODAY - 88 Fingers Louie
-------------------------------------------------------------------------------


Intro
G|---------------------------------------------------------------------------|
D|---------------------------------------------------------------------------|
A|--------------------------------10-10-10-10-10--5-5-5-5-5--9-9-9-9-9-------|
E|7-7-7-7-7--7-7-7-7-7--7-7-7-7-7--------------------------------------------|

Verse
G|---------------------------------------------------------------------------|
D|---------------------------------------------------------------------------|
A|-----------10-10-10-10-10-------------10-10-10-10-10-----------------------|
E|7-7-7-7-7------------------7-7-7-7-7---------------------------------------|

G|---------------------------------------------------------------------------|
D|---------------------------------------------------------------------------|
A|-----------10-10-10-10-10--5-5-5-5-5--9-9-9-9-9----------------------------|
E|7-7-7-7-7------------------------------------------------------------------|
Play twice

Chorus
G|---------------------------------------------------------------------------|
D|---------------------------------------------------------------------------|
A|--------------5-5-----------5-4--------------------5-5-----------5-4-------|
E|3-3-3-3--2-2-------7-7-7-7------7-5--3-3-3-3--2-2-------7-7-7-7-------7-5-3|
Play 1� times

Verse
Chorus

Slow Part
G|---------------------------------------------------------------------------|
D|---------------------------------------------------------------------------|
A|---------------------------------------------------------------------------|
E|7-7-7-7-7-7--3-3-3-3-3-3--0-0-0-0-0-0--2-2-2-2-2-2-------------------------|
Intro
�Verse

-------------------------------------------------------------------------------
Get this song at:
bol.com
amazon.com

Copyrights:

Author: ?

Composer: ?

Publisher: Hopeless Records

Details:

Released in: 1998

Language: English

Share your thoughts

This form is protected by reCAPTCHA and the Google Privacy Policy and Terms of Service apply.

0 Comments found