3 Doors Down

3 Doors Down - Not Enough guitar tab

Your rating:
Date: Mon, 18 Jun 2001 17:07:24 -0400
From: 
Subject: 3/3_doors_down/not_enough.tab

Three Doors Down
Not Enough
The Better Life
Standard Tuning
e-mail at tracer006@yahoo.com

Po= pull off directly to the next note shown

Riff A  (repeat 8 times)
E--------------------------|
B--------------------------|
G--------0--------0--------|
D-----2--------2-----------|
A--0--------3--------------|
E----------------------1�3-|

Chorus riff
E------------------------------------------|
B------------------------------------------|
G------------------------------------------|
D--5--5--5---7---7---10----3---3----5---5--|
A--5--5--5---7---7---10----3---3----5---5--|
E--3--3--3---5---5----8----1---1----3---3--|

Solo
E--------------------------------------------------5---------------------
B-----------------------5--5--5--------------3--------5----------5po3po0-
G--5--5--5--4--2--0--2----------2--2--5---5-----5--------5^-2-2----------
D------------------------------------------------------------------------
A------------------------------------------------------------------------
E------------------------------------------------------------------------
Solo continued
E-------------------7-7-5-3-0--|
B--5po3po0�5po3po0-------------|
G------------------------------|
D------------------------------|
A------------------------------|
E------------------------------|

Song Structure

Play riff A (8 times)
Play riff A  while he sings
Play chorus (4 times)
Play riff A  while he sings
Play chorus (4 times
Play riff A  2 times
Play Solo    1 time
Chorus      (2 times)

There are about 3 rhythms in the whole song. I hope
this tab helps you.
It is very simple, but is such an awesome song.

Solo & Song Tabbed by Tracer006
Get this song at:
bol.com
amazon.com

Copyrights:

Author: Brad Arnold

Composer: Brad Arnold, Chris Henderson (2), Matt Roberts (2), Todd Harrell

Publisher: Universal Records Inc.

Details:

Released in: 1999

Language: English

Appearing on: The Better Life (2000)

Share your thoughts

This form is protected by reCAPTCHA and the Google Privacy Policy and Terms of Service apply.

0 Comments found