3 Doors Down

3 Doors Down - Down Poison bass tab

Your rating:
�Down Poison� 3 Doors Down � The Better Life
bassist: Todd Harrell

tabbed by baronradon86

intro
G|----------|----------|-------------|----------|-----------|
D|----------|----------|-------------|----------|-----------|
A|--3-2-----|----------|------3-2----|----------|-----3-2---|
E|------3-2-|-0--------|--3-------32-|-0--------|--3-----32-|

G|------------|--------------|-------------|----------|
D|------------|--------------|-------------|----------|
A|------------|--------------|-------------|-3--2-----|
E|-0�--00--00-|-0----00-00---|-3----33-33--|--------3-|

verse
G|---------|----------|---------|----------|
D|---------|----------|---------|----------|
A|---------|----------|---------|-3-2------|
E|--0---0--|-0----0---|-3---3---|-------3--|

G|---------|----------|---------|----------|--------|-----------|
D|---------|----------|---------|----------|--------|-----------|
A|---------|----------|---------|-3�-32----|--------|-----3-2---|
E|-0---0---|-00-0-0---|-3---3---|------3-32|--0-----|-3-------32|

G|--------|------------|----------|-------------|----------|---------------|
D|--------|------------|----------|-------------|----------|---------------|
A|--------|-----3-2----|----------|------3-2----|----------|-----------5-7-|
E|-0------|-3-------32-|-0---0-00-|-3--------32-|-0�--0-00-|-3---8�5-7-----|

Chorus

G|----------------|------------------------|
D|--------10---10-|-----7---------9--------|
A|-7-77-----------|--5h7------7h9-------5--|
E|------8�---8----|-5------7--------5h7----|

G|----------------|-------------------------|
D|--------10---10-|-----7---------9----9\---|
A|-7-77-----------|--5h7------7h9-----------|
E|------8�---8----|-5------7---------7------|

Verse 2
G|---------|----------|---------|----------|
D|---------|----------|---------|----------|
A|---------|----------|---------|-3�-32----|
E|-0---0---|-00-0-0---|-3---3---|------3-32|

G|--------|------------|----------|-------------|----------|---------------|
D|--------|------------|----------|-------------|----------|---------------|
A|--------|-----3-2----|----------|------3-2----|----------|-----------5-7-|
E|-0------|-3-------32-|-0---0-00-|-3--------32-|-0�--0-00-|-3---8�5-7-----|

chorus x 2

Solo
X4
G|----------------|------------------|
D|----------------|------------------|
A|-7-777-------7\-|--------23202-----|
E|-------5-6-7----|-5-88--------3-2\-|

Interlude
X4
G|--------|----------|
D|--------|----------|
A|--7-----|----------|
E|-----8--|-5----7---|

Repeat chorus x2

Final verse

G|--------|------------|----------|-------------|
D|--------|------------|----------|-------------|
A|--------|-----3-2----|----------|------3-2----|
E|-0------|-3-------32-|-0---0-00-|-3--------32-|

G|--------|------------|----------|---------------|
D|--------|------------|----------|---------------|
A|--------|-----3-2----|----------|-----------5-7-|
E|-0------|-3-------32-|-0---0-00-|-3---8�5-7-----|


Chorus x2

End

G|---------------|--------------|-------------|----------|
D|---------------|--------------|-------------|----------|
A|-------------5-|--------------|-----------5-|----------|
E|-00--00--5-7---|-00�-00�--12\-|-00�00�5-7---|-0000-----|
Get this song at:
bol.com
amazon.com

Copyrights:

Author: Brad Arnold

Composer: Brad Arnold, Matt Roberts (2), Todd Harrell

Publisher: 3 Doors Down

Details:

Released in: 1997

Language: English

Appearing on: The Better Life (2000)

Share your thoughts

This form is protected by reCAPTCHA and the Google Privacy Policy and Terms of Service apply.

0 Comments found